  0
SECTION
  2
HEADER
  9
$ACADVER
  1
AC1009
  9
$INSBASE
 10
0.0
 20
0.0
 30
0.0
  9
$EXTMIN
 10
-574.99999999999989
 20
-867.35951533333343
 30
0.0
  9
$EXTMAX
 10
775.0
 20
1137.9568300000001
 30
0.0
  9
$LIMMIN
 10
0.0
 20
0.0
  9
$LIMMAX
 10
0.0
 20
0.0
  9
$ORTHOMODE
 70
     0
  9
$REGENMODE
 70
     1
  9
$FILLMODE
 70
     1
  9
$QTEXTMODE
 70
     0
  9
$MIRRTEXT
 70
     1
  9
$DRAGMODE
 70
     2
  9
$LTSCALE
 40
38.100000000000001
  9
$OSMODE
 70
   167
  9
$ATTMODE
 70
     1
  9
$TEXTSIZE
 40
0.0
  9
$TRACEWID
 40
1.0
  9
$TEXTSTYLE
  7
STANDARD
  9
$CLAYER
  8
0
  9
$CELTYPE
  6
CONTINUOUS
  9
$CECOLOR
 62
   256
  9
$DIMSCALE
 40
1.0
  9
$DIMASZ
 40
0.18
  9
$DIMEXO
 40
0.0625
  9
$DIMDLI
 40
0.38
  9
$DIMRND
 40
0.0
  9
$DIMDLE
 40
0.0
  9
$DIMEXE
 40
0.18
  9
$DIMTP
 40
0.0
  9
$DIMTM
 40
0.0
  9
$DIMTXT
 40
0.18
  9
$DIMCEN
 40
0.09
  9
$DIMTSZ
 40
0.0
  9
$DIMTOL
 70
     0
  9
$DIMLIM
 70
     0
  9
$DIMTIH
 70
     1
  9
$DIMTOH
 70
     1
  9
$DIMSE1
 70
     0
  9
$DIMSE2
 70
     0
  9
$DIMTAD
 70
     0
  9
$DIMZIN
 70
     0
  9
$DIMBLK
  1

  9
$DIMASO
 70
     1
  9
$DIMSHO
 70
     1
  9
$DIMPOST
  1

  9
$DIMAPOST
  1

  9
$DIMALT
 70
     0
  9
$DIMALTD
 70
     2
  9
$DIMALTF
 40
25.399999999999999
  9
$DIMLFAC
 40
1.0
  9
$DIMTOFL
 70
     0
  9
$DIMTVP
 40
0.0
  9
$DIMTIX
 70
     0
  9
$DIMSOXD
 70
     0
  9
$DIMSAH
 70
     0
  9
$DIMBLK1
  1

  9
$DIMBLK2
  1

  9
$DIMSTYLE
  2
STANDARD
  9
$DIMCLRD
 70
     0
  9
$DIMCLRE
 70
     0
  9
$DIMCLRT
 70
     0
  9
$DIMTFAC
 40
1.0
  9
$DIMGAP
 40
0.09
  9
$LUNITS
 70
     2
  9
$LUPREC
 70
     4
  9
$SKETCHINC
 40
0.1
  9
$FILLETRAD
 40
0.0
  9
$AUNITS
 70
     0
  9
$AUPREC
 70
     0
  9
$MENU
  1
acad
  9
$ELEVATION
 40
0.0
  9
$PELEVATION
 40
0.0
  9
$THICKNESS
 40
0.0
  9
$LIMCHECK
 70
     0
  9
$BLIPMODE
 70
     0
  9
$CHAMFERA
 40
0.0
  9
$CHAMFERB
 40
0.0
  9
$SKPOLY
 70
     0
  9
$TDCREATE
 40
2452508.5846759249
  9
$TDUPDATE
 40
2452508.6183097218
  9
$TDINDWG
 40
0.0006287037
  9
$TDUSRTIMER
 40
0.000628125
  9
$USRTIMER
 70
     1
  9
$ANGBASE
 50
0.0
  9
$ANGDIR
 70
     0
  9
$PDMODE
 70
     1
  9
$PDSIZE
 40
-2.0
  9
$PLINEWID
 40
0.0
  9
$COORDS
 70
     0
  9
$SPLFRAME
 70
     0
  9
$SPLINETYPE
 70
     6
  9
$SPLINESEGS
 70
     8
  9
$ATTDIA
 70
     0
  9
$ATTREQ
 70
     1
  9
$HANDLING
 70
 22529
  9
$HANDSEED
  5
10E4
  9
$SURFTAB1
 70
     6
  9
$SURFTAB2
 70
     6
  9
$SURFTYPE
 70
     6
  9
$SURFU
 70
     6
  9
$SURFV
 70
     6
  9
$UCSNAME
  2

  9
$UCSORG
 10
0.0
 20
0.0
 30
0.0
  9
$UCSXDIR
 10
1.0
 20
0.0
 30
0.0
  9
$UCSYDIR
 10
0.0
 20
1.0
 30
0.0
  9
$PUCSNAME
  2

  9
$PUCSORG
 10
0.0
 20
0.0
 30
0.0
  9
$PUCSXDIR
 10
1.0
 20
0.0
 30
0.0
  9
$PUCSYDIR
 10
0.0
 20
1.0
 30
0.0
  9
$USERI1
 70
     0
  9
$USERI2
 70
     0
  9
$USERI3
 70
     0
  9
$USERI4
 70
     0
  9
$USERI5
 70
     0
  9
$USERR1
 40
0.0
  9
$USERR2
 40
0.0
  9
$USERR3
 40
0.0
  9
$USERR4
 40
0.0
  9
$USERR5
 40
0.0
  9
$WORLDVIEW
 70
     1
  9
$SHADEDGE
 70
     3
  9
$SHADEDIF
 70
    70
  9
$TILEMODE
 70
     1
  9
$MAXACTVP
 70
    16
  9
$PLIMCHECK
 70
     0
  9
$PEXTMIN
 10
1.0000000000000000E+020
 20
1.0000000000000000E+020
 30
1.0000000000000000E+020
  9
$PEXTMAX
 10
-1.0000000000000000E+020
 20
-1.0000000000000000E+020
 30
-1.0000000000000000E+020
  9
$PLIMMIN
 10
0.0
 20
0.0
  9
$PLIMMAX
 10
12.0
 20
9.0
  9
$UNITMODE
 70
     0
  9
$VISRETAIN
 70
     0
  9
$PLINEGEN
 70
     1
  9
$PSLTSCALE
 70
     0
  0
ENDSEC
  0
SECTION
  2
TABLES
  0
TABLE
  2
VPORT
 70
     2
  0
VPORT
  2
*ACTIVE
 70
     0
 10
0.0
 20
0.0
 11
1.0
 21
1.0
 12
100.00000486082079
 22
135.3221045663465
 13
0.0
 23
0.0
 14
1.0
 24
1.0
 15
0.0
 25
0.0
 16
0.0
 26
0.0
 36
1.0
 17
0.0
 27
0.0
 37
0.0
 40
2208.8459017838309
 41
1.664912280701754
 42
50.0
 43
0.0
 44
0.0
 50
0.0
 51
0.0
 71
     0
 72
   100
 73
     1
 74
     1
 75
     0
 76
     0
 77
     0
 78
     0
  0
ENDTAB
  0
TABLE
  2
LTYPE
 70
    12
  0
LTYPE
  2
CONTINUOUS
 70
     0
  3
Solid line
 72
    65
 73
     0
 40
0.0
  0
LTYPE
  2
STYLE_01
 70
     0
  3

 72
    65
 73
     2
 40
0.4166412353515625
 49
0.208282470703125
 49
-0.2083587646484375
  0
LTYPE
  2
STYLE_02
 70
     0
  3

 72
    65
 73
     2
 40
0.694427490234375
 49
0.4860687255859375
 49
-0.2083587646484375
  0
LTYPE
  2
STYLE_03
 70
     0
  3

 72
    65
 73
     2
 40
1.25
 49
1.0416412353515621
 49
-0.2083587646484375
  0
LTYPE
  2
STYLE_04
 70
     0
  3

 72
    65
 73
     2
 40
1.5277099609375
 49
1.319427490234375
 49
-0.208282470703125
  0
LTYPE
  2
STYLE_05
 70
     0
  3

 72
    65
 73
     2
 40
0.208282470703125
 49
0.069427490234375
 49
-0.13885498046875
  0
LTYPE
  2
STYLE_06
 70
     0
  3

 72
    65
 73
     4
 40
1.0416412353515621
 49
0.625
 49
-0.208282470703125
 49
0.069427490234375
 49
-0.1389312744140625
  0
LTYPE
  2
STYLE_07
 70
     0
  3

 72
    65
 73
     6
 40
1.875
 49
0.625
 49
-0.208282470703125
 49
0.625
 49
-0.2083587646484375
 49
0.069427490234375
 49
-0.1389312744140625
  0
LTYPE
  2
STYLE_08
 70
     0
  3

 72
    65
 73
     6
 40
1.25
 49
0.625
 49
-0.208282470703125
 49
0.069427490234375
 49
-0.1389312744140625
 49
0.069427490234375
 49
-0.1389312744140625
  0
LTYPE
  2
STYLE_09
 70
     0
  3

 72
    65
 73
     4
 40
5.0
 49
3.75
 49
-0.2777862548828125
 49
0.694427490234375
 49
-0.2777862548828125
  0
LTYPE
  2
STYLE_10
 70
     0
  3

 72
    65
 73
     6
 40
5.9375
 49
3.75
 49
-0.2777862548828125
 49
0.694427490234375
 49
-0.2777862548828125
 49
0.625
 49
-0.3125
  0
LTYPE
  2
STYLE_11
 70
     0
  3

 72
    65
 73
     2
 40
0.5347442626953125
 49
0.3565216064453125
 49
-0.17822265625
  0
ENDTAB
  0
TABLE
  2
LAYER
 70
     5
  0
LAYER
  2
0
 70
     0
 62
     7
  6
CONTINUOUS
  0
LAYER
  2
HIBINO-BASE
 70
     0
 62
     7
  6
CONTINUOUS
  0
LAYER
  2
SPEC
 70
     0
 62
     7
  6
CONTINUOUS
  0
LAYER
  2
DIMNSIONS
 70
     0
 62
     7
  6
CONTINUOUS
  0
LAYER
  2
DATA
 70
     0
 62
     7
  6
CONTINUOUS
  0
ENDTAB
  0
TABLE
  2
STYLE
 70
     1
  0
STYLE
  2
STANDARD
 70
     0
 40
0.0
 41
1.0
 50
0.0
 71
     0
 42
0.0
  3
txt
  4
BIGFONT.SHX
  0
ENDTAB
  0
TABLE
  2
VIEW
 70
     0
  0
ENDTAB
  0
TABLE
  2
UCS
 70
     0
  0
ENDTAB
  0
TABLE
  2
APPID
 70
     1
  0
APPID
  2
ACAD
 70
     0
  0
ENDTAB
  0
TABLE
  2
DIMSTYLE
 70
     1
  0
DIMSTYLE
  2
STANDARD
 70
     0
  3

  4

  5

  6

  7

 40
1.0
 41
0.18
 42
0.0625
 43
0.38
 44
0.18
 45
0.0
 46
0.0
 47
0.0
 48
0.0
140
0.18
141
0.09
142
0.0
143
25.399999999999999
144
1.0
145
0.0
146
1.0
147
0.09
 71
     0
 72
     0
 73
     1
 74
     1
 75
     0
 76
     0
 77
     0
 78
     0
170
     0
171
     2
172
     0
173
     0
174
     0
175
     0
176
     0
177
     0
178
     0
  0
ENDTAB
  0
ENDSEC
  0
SECTION
  2
BLOCKS
  0
BLOCK
  8
0
  2
$MODEL_SPACE
 70
     0
 10
0.0
 20
0.0
 30
0.0
  3
$MODEL_SPACE
  1

  0
ENDBLK
  5
B44
  8
0
  0
BLOCK
 67
     1
  8
0
  2
$PAPER_SPACE
 70
     0
 10
0.0
 20
0.0
 30
0.0
  3
$PAPER_SPACE
  1

  0
ENDBLK
  5
B40
 67
     1
  8
0
  0
ENDSEC
  0
SECTION
  2
ENTITIES
  0
LINE
  5
B5F
  8
HIBINO-BASE
  6
CONTINUOUS
 62
     7
 10
-574.99999999999989
 20
1137.9568300000001
 30
0.0
 11
775.0
 21
1137.9568300000001
 31
0.0
  0
LINE
  5
B60
  8
HIBINO-BASE
  6
CONTINUOUS
 62
     7
 10
775.0
 20
-812.04316999999969
 30
0.0
 11
-574.99999999999989
 21
-812.04316999999969
 31
0.0
  0
LINE
  5
B61
  8
HIBINO-BASE
  6
CONTINUOUS
 62
     7
 10
-574.99999999999989
 20
-812.04316999999969
 30
0.0
 11
-574.99999999999989
 21
1137.9568300000001
 31
0.0
  0
TEXT
  5
B62
  8
HIBINO-BASE
 62
     7
 10
-521.11999999999978
 20
-858.00305400000002
 30
0.0
 40
28.069383999999989
  1
Hibino Corporation
 41
0.75
 11
-521.11999999999978
 21
-829.93366999999989
 31
0.0
 73
     3
  0
LINE
  5
B63
  8
HIBINO-BASE
  6
CONTINUOUS
 62
     7
 10
775.0
 20
1137.9568300000001
 30
0.0
 11
775.0
 21
-812.04316999999969
 31
0.0
  0
LINE
  5
B64
  8
HIBINO-BASE
  6
CONTINUOUS
 62
     7
 10
100.0
 20
-643.2931699999998
 30
0.0
 11
775.0
 21
-643.2931699999998
 31
0.0
  0
LINE
  5
B65
  8
HIBINO-BASE
  6
CONTINUOUS
 62
     7
 10
100.0
 20
-812.04316999999969
 30
0.0
 11
100.0
 21
-643.2931699999998
 31
0.0
  0
TEXT
  5
B66
  8
HIBINO-BASE
 62
     7
 10
106.75
 20
-662.49058999999988
 30
0.0
 40
14.03472
  1
NOTE
 41
0.75
 11
106.75
 21
-648.45586999999989
 31
0.0
 73
     3
  0
LINE
  5
B67
  8
HIBINO-BASE
  6
CONTINUOUS
 62
     7
 10
362.5
 20
-812.04316999999969
 30
0.0
 11
362.5
 21
-643.2931699999998
 31
0.0
  0
TEXT
  5
B68
  8
HIBINO-BASE
 62
     7
 10
369.24999999999989
 20
-662.49058999999988
 30
0.0
 40
14.03472
  1
TITLE
 41
0.75
 11
369.24999999999989
 21
-648.45586999999989
 31
0.0
 73
     3
  0
TEXT
  5
B69
  8
HIBINO-BASE
 62
     7
 10
475.51292999999998
 20
-858.00305400000002
 30
0.0
 40
28.069383999999989
  1
ヒビノ株式会社
 41
0.75
 11
475.51292999999998
 21
-829.93366999999989
 31
0.0
 73
     3
  0
LINE
  5
B6A
  8
HIBINO-BASE
  6
CONTINUOUS
 62
     7
 10
100.0
 20
-737.04316999999969
 30
0.0
 11
775.0
 21
-737.04316999999969
 31
0.0
  0
TEXT
  5
B6B
  8
HIBINO-BASE
 62
     7
 10
463.0
 20
-755.81818999999984
 30
0.0
 40
14.03472
  1
DRAWN
 41
0.75
 11
463.0
 21
-741.78346999999985
 31
0.0
 73
     3
  0
TEXT
  5
B6C
  8
HIBINO-BASE
 62
     7
 10
275.49999999999989
 20
-755.81818999999984
 30
0.0
 40
14.03472
  1
DATE
 41
0.75
 11
275.49999999999989
 21
-741.78346999999985
 31
0.0
 73
     3
  0
TEXT
  5
B6D
  8
HIBINO-BASE
 62
     7
 10
108.25
 20
-755.73659399999963
 30
0.0
 40
12.700024000000001
  1
図面サイズ
 41
0.75
 11
108.25
 21
-743.03656999999964
 31
0.0
 73
     3
  0
TEXT
  5
B6E
  8
HIBINO-BASE
 62
     7
 10
200.49999999999989
 20
-755.81818999999984
 30
0.0
 40
14.03472
  1
SCALE
 41
0.75
 11
200.49999999999989
 21
-741.78346999999985
 31
0.0
 73
     3
  0
TEXT
  5
B6F
  8
HIBINO-BASE
 62
     7
 10
369.24999999999989
 20
-755.81818999999984
 30
0.0
 40
14.03472
  1
DESIGN
 41
0.75
 11
369.24999999999989
 21
-741.78346999999985
 31
0.0
 73
     3
  0
TEXT
  5
B70
  8
HIBINO-BASE
 62
     7
 10
650.49999999999989
 20
-755.81818999999984
 30
0.0
 40
14.03472
  1
DRAWING NO.
 41
0.75
 11
650.49999999999989
 21
-741.78346999999985
 31
0.0
 73
     3
  0
TEXT
  5
B71
  8
HIBINO-BASE
 62
     7
 10
556.74999999999989
 20
-755.81818999999984
 30
0.0
 40
14.03472
  1
CHECK
 41
0.75
 11
556.74999999999989
 21
-741.78346999999985
 31
0.0
 73
     3
  0
LINE
  5
B72
  8
HIBINO-BASE
  6
CONTINUOUS
 62
     7
 10
207.8125
 20
-802.66816999999969
 30
0.0
 11
235.9375
 21
-774.54316999999969
 31
0.0
  0
TEXT
  5
B73
  8
HIBINO-BASE
 62
     7
 10
203.125
 20
-786.14106999999967
 30
0.0
 40
16.933319999999991
  1
1
 41
0.75
 11
203.125
 21
-769.20774999999981
 31
0.0
 73
     3
  0
LINE
  5
B74
  8
HIBINO-BASE
  6
CONTINUOUS
 62
     7
 10
193.75
 20
-812.04316999999969
 30
0.0
 11
193.75
 21
-737.04316999999969
 31
0.0
  0
LINE
  5
B75
  8
HIBINO-BASE
  6
CONTINUOUS
 62
     7
 10
268.74999999999989
 20
-812.04316999999969
 30
0.0
 11
268.74999999999989
 21
-737.04316999999969
 31
0.0
  0
LINE
  5
B76
  8
HIBINO-BASE
  6
CONTINUOUS
 62
     7
 10
456.25
 20
-737.04316999999969
 30
0.0
 11
456.25
 21
-812.04316999999969
 31
0.0
  0
LINE
  5
B77
  8
HIBINO-BASE
  6
CONTINUOUS
 62
     7
 10
643.75
 20
-737.04316999999969
 30
0.0
 11
643.75
 21
-812.04316999999969
 31
0.0
  0
LINE
  5
B78
  8
HIBINO-BASE
  6
CONTINUOUS
 62
     7
 10
549.99999999999989
 20
-812.04316999999969
 30
0.0
 11
549.99999999999989
 21
-737.04316999999969
 31
0.0
  0
TEXT
  5
B79
  8
HIBINO-BASE
 62
     7
 10
129.33167999999981
 20
-791.39975399999992
 30
0.0
 40
25.399983999999989
  1
A4
 41
0.75
 11
129.33167999999981
 21
-765.9997699999999
 31
0.0
 73
     3
  0
TEXT
  5
B7A
  8
HIBINO-BASE
 62
     7
 10
275.17405000000002
 20
-790.94803999999999
 30
0.0
 40
14.03472
  1
'01.02.
 41
0.75
 11
275.17405000000002
 21
-776.91331999999989
 31
0.0
 73
     3
  0
TEXT
  5
B7B
  8
HIBINO-BASE
 62
     7
 10
231.25
 20
-800.20356999999979
 30
0.0
 40
16.933319999999991
  1
7.5
 41
0.75
 11
231.25
 21
-783.27024999999981
 31
0.0
 73
     3
  0
LINE
  5
B7C
  8
SPEC
  6
CONTINUOUS
 62
     7
 10
-518.75
 20
1062.9568300000001
 30
0.0
 11
675.0
 21
1062.9568300000001
 31
0.0
  0
LINE
  5
B7D
  8
SPEC
  6
CONTINUOUS
 62
     7
 10
-518.75
 20
1034.8318300000001
 30
0.0
 11
675.0
 21
1034.8318300000001
 31
0.0
  0
LINE
  5
B7E
  8
SPEC
  6
CONTINUOUS
 62
     7
 10
-518.75
 20
894.20682999999985
 30
0.0
 11
675.0
 21
894.20682999999985
 31
0.0
  0
LINE
  5
B7F
  8
SPEC
  6
CONTINUOUS
 62
     7
 10
-518.75
 20
837.95682999999985
 30
0.0
 11
675.0
 21
837.95682999999985
 31
0.0
  0
LINE
  5
B80
  8
SPEC
  6
CONTINUOUS
 62
     7
 10
-518.75
 20
866.08182999999985
 30
0.0
 11
675.0
 21
866.08182999999985
 31
0.0
  0
LINE
  5
B81
  8
SPEC
  6
CONTINUOUS
 62
     7
 10
-518.75
 20
809.83182999999985
 30
0.0
 11
675.0
 21
809.83182999999985
 31
0.0
  0
LINE
  5
B82
  8
SPEC
  6
CONTINUOUS
 62
     7
 10
-518.75
 20
781.70682999999985
 30
0.0
 11
675.0
 21
781.70682999999985
 31
0.0
  0
TEXT
  5
B83
  8
SPEC
 62
     7
 10
-268.24999999999977
 20
1041.8524899999991
 30
0.0
 40
14.81664
  1
CE1000
 41
0.75
 11
-268.24999999999977
 21
1056.6691299999991
 31
0.0
 73
     3
  0
LINE
  5
B84
  8
SPEC
  6
CONTINUOUS
 62
     7
 10
-518.75
 20
669.20682999999985
 30
0.0
 11
675.0
 21
669.20682999999985
 31
0.0
  0
LINE
  5
B85
  8
SPEC
  6
CONTINUOUS
 62
     7
 10
-518.75
 20
1062.9568300000001
 30
0.0
 11
-518.75
 21
444.20683000000002
 31
0.0
  0
TEXT
  5
B86
  8
SPEC
 62
     7
 10
-509.375
 20
1074.8351099999991
 30
0.0
 40
19.050000000000001
  1
仕様
 41
0.75
 11
-509.375
 21
1093.885109999999
 31
0.0
 73
     3
  0
LINE
  5
B87
  8
SPEC
  6
CONTINUOUS
 62
     7
 10
-274.99999999999989
 20
1062.9568300000001
 30
0.0
 11
-274.99999999999989
 21
444.20683000000002
 31
0.0
  0
TEXT
  5
B88
  8
SPEC
 62
     7
 10
-268.24999999999977
 20
788.72748999999999
 30
0.0
 40
14.81664
  1
0.1%%%以下
 41
0.75
 11
-268.24999999999977
 21
803.54413
 31
0.0
 73
     3
  0
TEXT
  5
B89
  8
SPEC
 62
     7
 10
-268.24999999999977
 20
816.85248999999988
 30
0.0
 40
14.81664
  1
0.5%%%以下(20Hz～20kHz)
 41
0.75
 11
-268.24999999999977
 21
831.66913
 31
0.0
 73
     3
  0
TEXT
  5
B8A
  8
SPEC
 62
     7
 10
-512.0
 20
648.10248999999999
 30
0.0
 40
14.81664
  1
入力コネクタ
 41
0.75
 11
-512.0
 21
662.91913
 31
0.0
 73
     3
  0
TEXT
  5
B8B
  8
SPEC
 62
     7
 10
-512.0
 20
760.60248999999999
 30
0.0
 40
14.81664
  1
ダンピングファクタ
 41
0.75
 11
-512.0
 21
775.41913
 31
0.0
 73
     3
  0
TEXT
  5
B8C
  8
SPEC
 62
     7
 10
-512.0
 20
873.1024900000001
 30
0.0
 40
14.81664
  1
周波数特性
 41
0.75
 11
-512.0
 21
887.91913
 31
0.0
 73
     3
  0
TEXT
  5
B8D
  8
SPEC
 62
     7
 10
-512.0
 20
844.9774900000001
 30
0.0
 40
14.81664
  1
SN比
 41
0.75
 11
-512.0
 21
859.79413
 31
0.0
 73
     3
  0
TEXT
  5
B8E
  8
SPEC
 62
     7
 10
-512.0
 20
1013.727489999999
 30
0.0
 40
14.81664
  1
出力
 41
0.75
 11
-512.0
 21
1028.54413
 31
0.0
 73
     3
  0
TEXT
  5
B8F
  8
SPEC
 62
     7
 10
-512.0
 20
816.85248999999988
 30
0.0
 40
14.81664
  1
THD
 41
0.75
 11
-512.0
 21
831.66913
 31
0.0
 73
     3
  0
TEXT
  5
B90
  8
SPEC
 62
     7
 10
-512.0
 20
788.72748999999999
 30
0.0
 40
14.81664
  1
IMD
 41
0.75
 11
-512.0
 21
803.54413
 31
0.0
 73
     3
  0
TEXT
  5
B91
  8
SPEC
 62
     7
 10
-268.24999999999977
 20
648.10248999999999
 30
0.0
 40
14.81664
  1
XLR-3-31相当(バランス,2-HOT),フォーンジャック,
 41
0.75
 11
-268.24999999999977
 21
662.91913
 31
0.0
 73
     3
  0
TEXT
  5
B92
  8
SPEC
 62
     7
 10
-268.24999999999977
 20
873.1024900000001
 30
0.0
 40
14.81664
  1
+/-0.1dB(20Hz～20kHz,1W)
 41
0.75
 11
-268.24999999999977
 21
887.91913
 31
0.0
 73
     3
  0
TEXT
  5
B93
  8
SPEC
 62
     7
 10
-268.24999999999977
 20
844.9774900000001
 30
0.0
 40
14.81664
  1
105dB以上(ウエイト)
 41
0.75
 11
-268.24999999999977
 21
859.79413
 31
0.0
 73
     3
  0
TEXT
  5
B94
  8
SPEC
 62
     7
 10
-268.24999999999977
 20
760.60248999999999
 30
0.0
 40
14.81664
  1
400以上(10Hz～400Hz)
 41
0.75
 11
-268.24999999999977
 21
775.41913
 31
0.0
 73
     3
  0
TEXT
  5
B95
  8
SPEC
 62
     7
 10
-268.24999999999977
 20
1013.727489999999
 30
0.0
 40
14.81664
  1
ステレオ　　：560+560W(2Ω)
 41
0.75
 11
-268.24999999999977
 21
1028.54413
 31
0.0
 73
     3
  0
TEXT
  5
B96
  8
SPEC
 62
     7
 10
-268.24999999999977
 20
967.72748999999999
 30
0.0
 40
14.81664
  1
　　　　　　：275+275W(8Ω)
 41
0.75
 11
-268.24999999999977
 21
982.54412999999988
 31
0.0
 73
     3
  0
TEXT
  5
B97
  8
SPEC
 62
     7
 10
-268.24999999999977
 20
944.7274900000001
 30
0.0
 40
14.81664
  1
ブリッジモノ：1100W(4Ω)
 41
0.75
 11
-268.24999999999977
 21
959.54413
 31
0.0
 73
     3
  0
TEXT
  5
B98
  8
SPEC
 62
     7
 10
-268.24999999999977
 20
921.7274900000001
 30
0.0
 40
14.81664
  1
　　　　　　：900W(8Ω)
 41
0.75
 11
-268.24999999999977
 21
936.54413
 31
0.0
 73
     3
  0
TEXT
  5
B99
  8
SPEC
 62
     7
 10
-268.24999999999977
 20
990.72748999999999
 30
0.0
 40
14.81664
  1
　　　　　　：450+450W(4Ω)
 41
0.75
 11
-268.24999999999977
 21
1005.54413
 31
0.0
 73
     3
  0
TEXT
  5
B9A
  8
SPEC
 62
     7
 10
-512.0
 20
990.72748999999999
 30
0.0
 40
14.81664
  1
(1kHz,THD 0.1%%%)
 41
0.75
 11
-512.0
 21
1005.54413
 31
0.0
 73
     3
  0
LINE
  5
B9B
  8
SPEC
  6
CONTINUOUS
 62
     7
 10
-518.75
 20
753.58182999999985
 30
0.0
 11
675.0
 21
753.58182999999985
 31
0.0
  0
TEXT
  5
B9C
  8
SPEC
 62
     7
 10
-512.0
 20
732.47748999999999
 30
0.0
 40
14.81664
  1
入力インピーダンス
 41
0.75
 11
-512.0
 21
747.29413
 31
0.0
 73
     3
  0
TEXT
  5
B9D
  8
SPEC
 62
     7
 10
-268.24999999999977
 20
732.47748999999999
 30
0.0
 40
14.81664
  1
20kΩ(バランス)
 41
0.75
 11
-268.24999999999977
 21
747.29413
 31
0.0
 73
     3
  0
LINE
  5
B9E
  8
SPEC
  6
CONTINUOUS
 62
     7
 10
-518.75
 20
697.33182999999985
 30
0.0
 11
675.0
 21
697.33182999999985
 31
0.0
  0
TEXT
  5
B9F
  8
SPEC
 62
     7
 10
-268.24999999999977
 20
676.22748999999999
 30
0.0
 40
14.81664
  1
1.4V/26dB電圧ゲイン
 41
0.75
 11
-268.24999999999977
 21
691.04413
 31
0.0
 73
     3
  0
TEXT
  5
BA0
  8
SPEC
 62
     7
 10
-512.0
 20
676.22748999999999
 30
0.0
 40
14.81664
  1
入力感度
 41
0.75
 11
-512.0
 21
691.04413
 31
0.0
 73
     3
  0
TEXT
  5
BA1
  8
SPEC
 62
     7
 10
-268.24999999999977
 20
709.47748999999988
 30
0.0
 40
14.81664
  1
10kΩ(アンバランス)
 41
0.75
 11
-268.24999999999977
 21
724.29413
 31
0.0
 73
     3
  0
TEXT
  5
BA2
  8
SPEC
 62
     7
 10
206.74999999999989
 20
1041.8524899999991
 30
0.0
 40
14.81664
  1
CE 2000
 41
0.75
 11
206.74999999999989
 21
1056.6691299999991
 31
0.0
 73
     3
  0
LINE
  5
BA3
  8
SPEC
  6
CONTINUOUS
 62
     7
 10
200.0
 20
1062.9568300000001
 30
0.0
 11
200.0
 21
444.20683000000002
 31
0.0
  0
TEXT
  5
BA4
  8
SPEC
 62
     7
 10
206.74999999999989
 20
788.72748999999999
 30
0.0
 40
14.81664
  1
0.1%%%以下
 41
0.75
 11
206.74999999999989
 21
803.54413
 31
0.0
 73
     3
  0
TEXT
  5
BA5
  8
SPEC
 62
     7
 10
206.74999999999989
 20
816.85248999999988
 30
0.0
 40
14.81664
  1
0.5%%%以下(20Hz～20kHz)
 41
0.75
 11
206.74999999999989
 21
831.66913
 31
0.0
 73
     3
  0
TEXT
  5
BA6
  8
SPEC
 62
     7
 10
206.74999999999989
 20
873.1024900000001
 30
0.0
 40
14.81664
  1
+/-0.1dB(20Hz～20kHz,1W)
 41
0.75
 11
206.74999999999989
 21
887.91913
 31
0.0
 73
     3
  0
TEXT
  5
BA7
  8
SPEC
 62
     7
 10
206.74999999999989
 20
844.9774900000001
 30
0.0
 40
14.81664
  1
105dB以上(Aウエイト)
 41
0.75
 11
206.74999999999989
 21
859.79413
 31
0.0
 73
     3
  0
TEXT
  5
BA8
  8
SPEC
 62
     7
 10
206.74999999999989
 20
760.60248999999999
 30
0.0
 40
14.81664
  1
400以上(10Hz～400Hz)
 41
0.75
 11
206.74999999999989
 21
775.41913
 31
0.0
 73
     3
  0
TEXT
  5
BA9
  8
SPEC
 62
     7
 10
206.74999999999989
 20
1013.727489999999
 30
0.0
 40
14.81664
  1
ステレオ　　：975+975W(2Ω)
 41
0.75
 11
206.74999999999989
 21
1028.54413
 31
0.0
 73
     3
  0
TEXT
  5
BAA
  8
SPEC
 62
     7
 10
206.74999999999989
 20
967.72748999999999
 30
0.0
 40
14.81664
  1
　　　　　　：400+400W(8Ω)
 41
0.75
 11
206.74999999999989
 21
982.54412999999988
 31
0.0
 73
     3
  0
TEXT
  5
BAB
  8
SPEC
 62
     7
 10
206.74999999999989
 20
944.7274900000001
 30
0.0
 40
14.81664
  1
ブリッジモノ：1950W(4Ω)
 41
0.75
 11
206.74999999999989
 21
959.54413
 31
0.0
 73
     3
  0
TEXT
  5
BAC
  8
SPEC
 62
     7
 10
206.74999999999989
 20
921.7274900000001
 30
0.0
 40
14.81664
  1
　　　　　　：1320W(8Ω)
 41
0.75
 11
206.74999999999989
 21
936.54413
 31
0.0
 73
     3
  0
TEXT
  5
BAD
  8
SPEC
 62
     7
 10
206.74999999999989
 20
990.72748999999999
 30
0.0
 40
14.81664
  1
　　　　　　：660+660W(4Ω)
 41
0.75
 11
206.74999999999989
 21
1005.54413
 31
0.0
 73
     3
  0
TEXT
  5
BAE
  8
SPEC
 62
     7
 10
206.74999999999989
 20
732.47748999999999
 30
0.0
 40
14.81664
  1
20kΩ(バランス)
 41
0.75
 11
206.74999999999989
 21
747.29413
 31
0.0
 73
     3
  0
TEXT
  5
BAF
  8
SPEC
 62
     7
 10
206.74999999999989
 20
676.22748999999999
 30
0.0
 40
14.81664
  1
1.4V/26dB電圧ゲイン
 41
0.75
 11
206.74999999999989
 21
691.04413
 31
0.0
 73
     3
  0
TEXT
  5
BB0
  8
SPEC
 62
     7
 10
206.74999999999989
 20
709.47748999999988
 30
0.0
 40
14.81664
  1
10kΩ(アンバランス)
 41
0.75
 11
206.74999999999989
 21
724.29413
 31
0.0
 73
     3
  0
LINE
  5
BB1
  8
SPEC
  6
CONTINUOUS
 62
     7
 10
-518.75
 20
612.95682999999985
 30
0.0
 11
675.0
 21
612.95682999999985
 31
0.0
  0
TEXT
  5
BB2
  8
SPEC
 62
     7
 10
-512.0
 20
591.85248999999999
 30
0.0
 40
14.81664
  1
出力コネクタ
 41
0.75
 11
-512.0
 21
606.66913
 31
0.0
 73
     3
  0
TEXT
  5
BB3
  8
SPEC
 62
     7
 10
-268.24999999999977
 20
591.85248999999999
 30
0.0
 40
14.81664
  1
ノイトリック製 4Pスピコン(NL4MP),
 41
0.75
 11
-268.24999999999977
 21
606.66913
 31
0.0
 73
     3
  0
TEXT
  5
BB4
  8
SPEC
 62
     7
 10
206.74999999999989
 20
591.85248999999999
 30
0.0
 40
14.81664
  1
ノイトリック製 4Pスピコン(NL4MP),
 41
0.75
 11
206.74999999999989
 21
606.66913
 31
0.0
 73
     3
  0
TEXT
  5
BB5
  8
SPEC
 62
     7
 10
-268.24999999999977
 20
625.10248999999988
 30
0.0
 40
14.81664
  1
バリアブロック(バランス)
 41
0.75
 11
-268.24999999999977
 21
639.91913
 31
0.0
 73
     3
  0
TEXT
  5
BB6
  8
SPEC
 62
     7
 10
206.74999999999989
 20
648.10248999999999
 30
0.0
 40
14.81664
  1
XLR-3-31相当(バランス,2-HOT),フォーンジャック,
 41
0.75
 11
206.74999999999989
 21
662.91913
 31
0.0
 73
     3
  0
TEXT
  5
BB7
  8
SPEC
 62
     7
 10
206.74999999999989
 20
625.10248999999988
 30
0.0
 40
14.81664
  1
バリアブロック(バランス)
 41
0.75
 11
206.74999999999989
 21
639.91913
 31
0.0
 73
     3
  0
TEXT
  5
BB8
  8
SPEC
 62
     7
 10
-500.0
 20
412.30000000000001
 30
0.0
 40
12.699999999999999
  1
■　2Ω負荷に対応する大出力を、コストパフォーマンス高く実現。正確な音の再現性と低歪率が、透明な高域とタ イトな低域を音源に忠実に出力。
 41
0.75
 11
-500.0
 21
425.0
 31
0.0
 73
     3
  0
TEXT
  5
BB9
  8
SPEC
 62
     7
 10
-500.0
 20
387.30000000000001
 30
0.0
 40
12.699999999999999
  1
■　最新の保護回路を搭載。負荷のショートやオープン、ミスマッチ、過大入力、高周波の過負荷からパワーアンプを保護。入出力のDC、DCオフセット、
 41
0.75
 11
-500.0
 21
400.0
 31
0.0
 73
     3
  0
TEXT
  5
BBA
  8
SPEC
 62
     7
 10
-500.0
 20
337.30000000000001
 30
0.0
 40
12.699999999999999
  1
■　温度検知式の可変速ファンを搭載し、過熱を防ぎながら雑音の発生を最低限に抑制。エアフィルタを使用していないため、フィルタの清掃による
 41
0.75
 11
-500.0
 21
350.0
 31
0.0
 73
     3
  0
TEXT
  5
BBB
  8
SPEC
 62
     7
 10
-500.0
 20
287.30000000000001
 30
0.0
 40
12.699999999999999
  1
■　クリック付のレベルコントロールを、フロントパネルに搭載。不用意な操作を防ぐため、ノブは簡単に取り外すことができ、取付穴を埋める
 41
0.75
 11
-500.0
 21
300.0
 31
0.0
 73
     3
  0
TEXT
  5
BBC
  8
SPEC
 62
     7
 10
-500.0
 20
237.30000000000001
 30
0.0
 40
12.699999999999999
  1
■　背面パネルのSSTモジュールを交換して、クロスオーバなどの拡張機能を内蔵可能。
 41
0.75
 11
-500.0
 21
250.0
 31
0.0
 73
     3
  0
TEXT
  5
BBD
  8
SPEC
 62
     7
 10
-500.0
 20
365.6749999999999
 30
0.0
 40
12.699999999999999
  1
　　電源ON/OFF時の瞬時電流からスピーカの破壊を防止。
 41
0.75
 11
-500.0
 21
378.37499999999989
 31
0.0
 73
     3
  0
TEXT
  5
BBE
  8
SPEC
 62
     7
 10
-500.0
 20
315.67499999999978
 30
0.0
 40
12.699999999999999
  1
　　メインテナンスの手間を削減。
 41
0.75
 11
-500.0
 21
328.37499999999989
 31
0.0
 73
     3
  0
TEXT
  5
BBF
  8
SPEC
 62
     7
 10
-500.0
 20
265.67499999999978
 30
0.0
 40
12.699999999999999
  1
　　ホールキャップが標準で付属。
 41
0.75
 11
-500.0
 21
278.37499999999989
 31
0.0
 73
     3
  0
LINE
  5
BC0
  8
SPEC
  6
CONTINUOUS
 62
     7
 10
675.0
 20
1062.9568300000001
 30
0.0
 11
675.0
 21
444.20683000000002
 31
0.0
  0
LINE
  5
BC1
  8
SPEC
  6
CONTINUOUS
 62
     7
 10
-518.75
 20
472.33183000000002
 30
0.0
 11
675.0
 21
472.33183000000002
 31
0.0
  0
LINE
  5
BC2
  8
SPEC
  6
CONTINUOUS
 62
     7
 10
-518.75
 20
500.45683000000002
 30
0.0
 11
675.0
 21
500.45683000000002
 31
0.0
  0
TEXT
  5
BC3
  8
SPEC
 62
     7
 10
-512.0
 20
507.47748999999999
 30
0.0
 40
14.81664
  1
寸法
 41
0.75
 11
-512.0
 21
522.29413
 31
0.0
 73
     3
  0
TEXT
  5
BC4
  8
SPEC
 62
     7
 10
-512.0
 20
479.35248999999999
 30
0.0
 40
14.81664
  1
重量
 41
0.75
 11
-512.0
 21
494.16913
 31
0.0
 73
     3
  0
TEXT
  5
BC5
  8
SPEC
 62
     7
 10
-268.24999999999977
 20
507.47748999999999
 30
0.0
 40
14.81664
  1
483.5(W)×133(H)×311(D)mm
 41
0.75
 11
-268.24999999999977
 21
522.29413
 31
0.0
 73
     3
  0
TEXT
  5
BC6
  8
SPEC
 62
     7
 10
-268.24999999999977
 20
479.35248999999999
 30
0.0
 40
14.81664
  1
約16kg
 41
0.75
 11
-268.24999999999977
 21
494.16913
 31
0.0
 73
     3
  0
LINE
  5
BC7
  8
SPEC
  6
CONTINUOUS
 62
     7
 10
-518.75
 20
556.70682999999985
 30
0.0
 11
675.0
 21
556.70682999999985
 31
0.0
  0
TEXT
  5
BC8
  8
SPEC
 62
     7
 10
-512.0
 20
535.60248999999999
 30
0.0
 40
14.81664
  1
電源/消費電力
 41
0.75
 11
-512.0
 21
550.41913
 31
0.0
 73
     3
  0
TEXT
  5
BC9
  8
SPEC
 62
     7
 10
-268.24999999999977
 20
535.60248999999999
 30
0.0
 40
14.81664
  1
AC100V,50/60Hz,7.6A
 41
0.75
 11
-268.24999999999977
 21
550.41913
 31
0.0
 73
     3
  0
LINE
  5
BCA
  8
SPEC
  6
CONTINUOUS
 62
     7
 10
-518.75
 20
528.58182999999985
 30
0.0
 11
675.0
 21
528.58182999999985
 31
0.0
  0
TEXT
  5
BCB
  8
SPEC
 62
     7
 10
206.74999999999989
 20
507.47748999999999
 30
0.0
 40
14.81664
  1
483.5(W)×133(H)×311(D)mm
 41
0.75
 11
206.74999999999989
 21
522.29413
 31
0.0
 73
     3
  0
TEXT
  5
BCC
  8
SPEC
 62
     7
 10
206.74999999999989
 20
479.35248999999999
 30
0.0
 40
14.81664
  1
約20kg
 41
0.75
 11
206.74999999999989
 21
494.16913
 31
0.0
 73
     3
  0
TEXT
  5
BCD
  8
SPEC
 62
     7
 10
206.74999999999989
 20
535.60248999999999
 30
0.0
 40
14.81664
  1
AC100V,50/60Hz,11.4A
 41
0.75
 11
206.74999999999989
 21
550.41913
 31
0.0
 73
     3
  0
LINE
  5
BCE
  8
SPEC
  6
CONTINUOUS
 62
     7
 10
-518.75
 20
444.20683000000002
 30
0.0
 11
675.0
 21
444.20683000000002
 31
0.0
  0
TEXT
  5
BCF
  8
SPEC
 62
     7
 10
-512.0
 20
451.22748999999999
 30
0.0
 40
14.81664
  1
付属品
 41
0.75
 11
-512.0
 21
466.04413
 31
0.0
 73
     3
  0
TEXT
  5
BD0
  8
SPEC
 62
     7
 10
-268.24999999999977
 20
451.22748999999999
 30
0.0
 40
14.81664
  1
電源ケーブル　1本
 41
0.75
 11
-268.24999999999977
 21
466.04413
 31
0.0
 73
     3
  0
TEXT
  5
BD1
  8
SPEC
 62
     7
 10
206.74999999999989
 20
451.22748999999999
 30
0.0
 40
14.81664
  1
電源ケーブル　1本
 41
0.75
 11
206.74999999999989
 21
466.04413
 31
0.0
 73
     3
  0
TEXT
  5
BD2
  8
SPEC
 62
     7
 10
-268.24999999999977
 20
568.85248999999988
 30
0.0
 40
14.81664
  1
バインディングポスト
 41
0.75
 11
-268.24999999999977
 21
583.66913
 31
0.0
 73
     3
  0
TEXT
  5
BD3
  8
SPEC
 62
     7
 10
206.74999999999989
 20
568.85248999999988
 30
0.0
 40
14.81664
  1
バインディングポスト
 41
0.75
 11
206.74999999999989
 21
583.66913
 31
0.0
 73
     3
  0
TEXT
  5
BD4
  8
DIMNSIONS
 62
     7
 10
-50.000000000000021
 20
-718.59324999999978
 30
0.0
 40
19.050000000000001
  1
(単位：mm)
 41
0.75
 11
-50.000000000000021
 21
-699.54324999999994
 31
0.0
 73
     3
  0
LINE
  5
BD5
  8
DIMNSIONS
  6
CONTINUOUS
 62
     7
 10
-427.5
 20
-82.000000055879326
 30
0.0
 11
-427.5
 21
39.99999994412066
 31
0.0
  0
LINE
  5
BD6
  8
DIMNSIONS
  6
CONTINUOUS
 62
     7
 10
11.0
 20
-82.000000055879326
 30
0.0
 11
11.0
 21
39.999999944120653
 31
0.0
  0
LINE
  5
BD7
  8
DIMNSIONS
 62
     7
 10
-427.5
 20
25.000000000000011
 30
0.0
 11
-403.6875
 21
31.38054014476613
 31
0.0
  0
LINE
  5
BD8
  8
DIMNSIONS
 62
     7
 10
-427.5
 20
25.000000000000011
 30
0.0
 11
-403.6875
 21
18.619459855233881
 31
0.0
  0
LINE
  5
BD9
  8
DIMNSIONS
 62
     7
 10
11.0
 20
25.000000000000011
 30
0.0
 11
-12.8125
 21
18.619459855233881
 31
0.0
  0
LINE
  5
BDA
  8
DIMNSIONS
 62
     7
 10
11.0
 20
25.000000000000011
 30
0.0
 11
-12.8125
 21
31.38054014476613
 31
0.0
  0
LINE
  5
BDB
  8
DIMNSIONS
  6
CONTINUOUS
 62
     7
 10
-427.5
 20
25.000000000000011
 30
0.0
 11
11.0
 21
25.000000000000011
 31
0.0
  0
TEXT
  5
BDC
  8
DIMNSIONS
 62
     7
 10
-234.70833749999991
 20
36.733333999999999
 30
0.0
 40
16.933336000000001
  1
438.5
 41
0.75
 11
-234.70833749999991
 21
53.666670000000003
 31
0.0
 73
     3
  0
LINE
  5
BDD
  8
DIMNSIONS
  6
CONTINUOUS
 62
     7
 10
-425.0
 20
-24.000000055879319
 30
0.0
 11
-425.0
 21
2.4999999441206722
 31
0.0
  0
LINE
  5
BDE
  8
DIMNSIONS
  6
CONTINUOUS
 62
     7
 10
8.5
 20
-24.000000055879319
 30
0.0
 11
8.5
 21
2.4999999441206722
 31
0.0
  0
LINE
  5
BDF
  8
DIMNSIONS
 62
     7
 10
-425.0
 20
-12.49999999999997
 30
0.0
 11
-401.18749999999989
 21
-6.1194598552338562
 31
0.0
  0
LINE
  5
BE0
  8
DIMNSIONS
 62
     7
 10
-425.0
 20
-12.49999999999997
 30
0.0
 11
-401.18749999999989
 21
-18.880540144766069
 31
0.0
  0
LINE
  5
BE1
  8
DIMNSIONS
 62
     7
 10
8.5
 20
-12.49999999999997
 30
0.0
 11
-15.3125
 21
-18.880540144766069
 31
0.0
  0
LINE
  5
BE2
  8
DIMNSIONS
 62
     7
 10
8.5
 20
-12.49999999999997
 30
0.0
 11
-15.3125
 21
-6.1194598552338562
 31
0.0
  0
LINE
  5
BE3
  8
DIMNSIONS
  6
CONTINUOUS
 62
     7
 10
-425.0
 20
-12.49999999999997
 30
0.0
 11
8.5
 21
-12.49999999999997
 31
0.0
  0
TEXT
  5
BE4
  8
DIMNSIONS
 62
     7
 10
-234.70833749999991
 20
-0.766665999999983
 30
0.0
 40
16.933336000000001
  1
433.5
 41
0.75
 11
-234.70833749999991
 21
16.166670000000011
 31
0.0
 73
     3
  0
LINE
  5
BE5
  8
DIMNSIONS
  6
CONTINUOUS
 62
     7
 10
-450.0
 20
-589.99999994412053
 30
0.0
 11
-450.0
 21
-677.49999994412053
 31
0.0
  0
LINE
  5
BE6
  8
DIMNSIONS
  6
CONTINUOUS
 62
     7
 10
33.499999999999972
 20
-589.99999994412053
 30
0.0
 11
33.499999999999972
 21
-677.49999994412053
 31
0.0
  0
LINE
  5
BE7
  8
DIMNSIONS
 62
     7
 10
-450.0
 20
-662.49999999999989
 30
0.0
 11
-426.18749999999989
 21
-656.11945985523357
 31
0.0
  0
LINE
  5
BE8
  8
DIMNSIONS
 62
     7
 10
-450.0
 20
-662.49999999999989
 30
0.0
 11
-426.18749999999989
 21
-668.88054014476575
 31
0.0
  0
LINE
  5
BE9
  8
DIMNSIONS
 62
     7
 10
33.499999999999972
 20
-662.49999999999989
 30
0.0
 11
9.687499999999984
 21
-668.88054014476575
 31
0.0
  0
LINE
  5
BEA
  8
DIMNSIONS
 62
     7
 10
33.499999999999972
 20
-662.49999999999989
 30
0.0
 11
9.687499999999984
 21
-656.11945985523357
 31
0.0
  0
LINE
  5
BEB
  8
DIMNSIONS
  6
CONTINUOUS
 62
     7
 10
-450.0
 20
-662.49999999999989
 30
0.0
 11
33.499999999999972
 21
-662.49999999999989
 31
0.0
  0
TEXT
  5
BEC
  8
DIMNSIONS
 62
     7
 10
-241.32291249999989
 20
-649.7083339999997
 30
0.0
 40
21.166664000000001
  1
483.5
 41
0.75
 11
-241.32291249999989
 21
-628.54166999999984
 31
0.0
 73
     3
  0
LINE
  5
BED
  8
DIMNSIONS
  6
CONTINUOUS
 62
     7
 10
-464.9999999441207
 20
-574.99999999999989
 30
0.0
 11
-539.99999994412065
 21
-574.99999999999989
 31
0.0
  0
LINE
  5
BEE
  8
DIMNSIONS
  6
CONTINUOUS
 62
     7
 10
-464.9999999441207
 20
-442.0
 30
0.0
 11
-539.99999994412065
 21
-442.0
 31
0.0
  0
LINE
  5
BEF
  8
DIMNSIONS
 62
     7
 10
-525.0
 20
-574.99999999999989
 30
0.0
 11
-531.38054014476609
 21
-551.18749999999977
 31
0.0
  0
LINE
  5
BF0
  8
DIMNSIONS
 62
     7
 10
-525.0
 20
-574.99999999999989
 30
0.0
 11
-518.61945985523391
 21
-551.18749999999977
 31
0.0
  0
LINE
  5
BF1
  8
DIMNSIONS
 62
     7
 10
-525.0
 20
-442.0
 30
0.0
 11
-518.61945985523391
 21
-465.8125
 31
0.0
  0
LINE
  5
BF2
  8
DIMNSIONS
 62
     7
 10
-525.0
 20
-442.0
 30
0.0
 11
-531.38054014476609
 21
-465.8125
 31
0.0
  0
LINE
  5
BF3
  8
DIMNSIONS
  6
CONTINUOUS
 62
     7
 10
-525.0
 20
-574.99999999999989
 30
0.0
 11
-525.0
 21
-442.0
 31
0.0
  0
TEXT
  5
BF4
  8
DIMNSIONS
 62
     7
 10
-537.79166599999985
 20
-528.34374749999995
 30
0.0
 40
21.166664000000001
  1
133
 50
90.0
 41
0.75
 11
-558.95832999999993
 21
-528.34374749999995
 31
0.0
 73
     3
  0
LINE
  5
BF5
  8
DIMNSIONS
  6
CONTINUOUS
 62
     7
 10
-457.24999994412042
 20
-479.92499999999978
 30
0.0
 11
-489.9999999441207
 21
-479.92499999999978
 31
0.0
  0
LINE
  5
BF6
  8
DIMNSIONS
  6
CONTINUOUS
 62
     7
 10
-457.24999994412042
 20
-537.07499999999993
 30
0.0
 11
-489.9999999441207
 21
-537.07499999999993
 31
0.0
  0
LINE
  5
BF7
  8
DIMNSIONS
 62
     7
 10
-475.0
 20
-479.92499999999978
 30
0.0
 11
-468.61945985523391
 21
-503.73749999999978
 31
0.0
  0
LINE
  5
BF8
  8
DIMNSIONS
 62
     7
 10
-475.0
 20
-479.92499999999978
 30
0.0
 11
-481.38054014476609
 21
-503.73749999999978
 31
0.0
  0
LINE
  5
BF9
  8
DIMNSIONS
 62
     7
 10
-475.0
 20
-537.07499999999993
 30
0.0
 11
-481.38054014476609
 21
-513.26249999999993
 31
0.0
  0
LINE
  5
BFA
  8
DIMNSIONS
 62
     7
 10
-475.0
 20
-537.07499999999993
 30
0.0
 11
-468.61945985523391
 21
-513.26249999999993
 31
0.0
  0
LINE
  5
BFB
  8
DIMNSIONS
  6
CONTINUOUS
 62
     7
 10
-475.0
 20
-479.92499999999978
 30
0.0
 11
-475.0
 21
-537.07499999999993
 31
0.0
  0
TEXT
  5
BFC
  8
DIMNSIONS
 62
     7
 10
-486.73333400000001
 20
-529.66667000000007
 30
0.0
 40
16.933336000000001
  1
57.2
 50
90.0
 41
0.75
 11
-503.66667000000001
 21
-529.66667000000007
 31
0.0
 73
     3
  0
LINE
  5
BFD
  8
DIMNSIONS
  6
CONTINUOUS
 62
     7
 10
-464.9999999441207
 20
-345.99999999999977
 30
0.0
 11
-539.99999994412065
 21
-345.99999999999977
 31
0.0
  0
LINE
  5
BFE
  8
DIMNSIONS
  6
CONTINUOUS
 62
     7
 10
-439.9999999441207
 20
-38.999999999999957
 30
0.0
 11
-539.99999994412065
 21
-38.999999999999957
 31
0.0
  0
LINE
  5
BFF
  8
DIMNSIONS
 62
     7
 10
-525.0
 20
-345.99999999999977
 30
0.0
 11
-531.38054014476609
 21
-322.18749999999977
 31
0.0
  0
LINE
  5
C00
  8
DIMNSIONS
 62
     7
 10
-525.0
 20
-345.99999999999977
 30
0.0
 11
-518.61945985523391
 21
-322.18749999999977
 31
0.0
  0
LINE
  5
C01
  8
DIMNSIONS
 62
     7
 10
-525.0
 20
-38.999999999999957
 30
0.0
 11
-518.61945985523391
 21
-62.812499999999972
 31
0.0
  0
LINE
  5
C02
  8
DIMNSIONS
 62
     7
 10
-525.0
 20
-38.999999999999957
 30
0.0
 11
-531.38054014476609
 21
-62.812499999999972
 31
0.0
  0
LINE
  5
C03
  8
DIMNSIONS
  6
CONTINUOUS
 62
     7
 10
-525.0
 20
-345.99999999999977
 30
0.0
 11
-525.0
 21
-38.999999999999957
 31
0.0
  0
TEXT
  5
C04
  8
DIMNSIONS
 62
     7
 10
-537.79166599999985
 20
-212.34374749999981
 30
0.0
 40
21.166664000000001
  1
307
 50
90.0
 41
0.75
 11
-558.95832999999993
 21
-212.34374749999981
 31
0.0
 73
     3
  0
LINE
  5
C05
  8
DIMNSIONS
  6
CONTINUOUS
 62
     7
 10
-440.74999999999989
 20
-555.57499994412035
 30
0.0
 11
-440.74999999999989
 21
-627.49999994412053
 31
0.0
  0
LINE
  5
C06
  8
DIMNSIONS
  6
CONTINUOUS
 62
     7
 10
24.249999999999972
 20
-555.57499994412035
 30
0.0
 11
24.249999999999972
 21
-627.49999994412053
 31
0.0
  0
LINE
  5
C07
  8
DIMNSIONS
 62
     7
 10
-440.74999999999989
 20
-612.49999999999989
 30
0.0
 11
-416.9375
 21
-606.11945985523357
 31
0.0
  0
LINE
  5
C08
  8
DIMNSIONS
 62
     7
 10
-440.74999999999989
 20
-612.49999999999989
 30
0.0
 11
-416.9375
 21
-618.88054014476575
 31
0.0
  0
LINE
  5
C09
  8
DIMNSIONS
 62
     7
 10
24.249999999999972
 20
-612.49999999999989
 30
0.0
 11
0.4374999999999858
 21
-618.88054014476575
 31
0.0
  0
LINE
  5
C0A
  8
DIMNSIONS
 62
     7
 10
24.249999999999972
 20
-612.49999999999989
 30
0.0
 11
0.4374999999999858
 21
-606.11945985523357
 31
0.0
  0
LINE
  5
C0B
  8
DIMNSIONS
  6
CONTINUOUS
 62
     7
 10
-440.74999999999989
 20
-612.49999999999989
 30
0.0
 11
24.249999999999972
 21
-612.49999999999989
 31
0.0
  0
TEXT
  5
C0C
  8
DIMNSIONS
 62
     7
 10
-224.12500249999991
 20
-600.76666599999987
 30
0.0
 40
16.933336000000001
  1
465
 41
0.75
 11
-224.12500249999991
 21
-583.83332999999982
 31
0.0
 73
     3
  0
LINE
  5
C0D
  8
DIMNSIONS
  6
CONTINUOUS
 62
     7
 10
-464.9999999441207
 20
-349.99999999999977
 30
0.0
 11
-539.99999994412065
 21
-349.99999999999977
 31
0.0
  0
LINE
  5
C0E
  8
DIMNSIONS
  6
CONTINUOUS
 62
     7
 10
-464.9999999441207
 20
-345.99999999999977
 30
0.0
 11
-539.99999994412065
 21
-345.99999999999977
 31
0.0
  0
LINE
  5
C0F
  8
DIMNSIONS
  6
CONTINUOUS
 62
     7
 10
-525.0
 20
-345.99999999999977
 30
0.0
 11
-525.0
 21
-349.99999999999977
 31
0.0
  0
LINE
  5
C10
  8
DIMNSIONS
 62
     7
 10
-525.0
 20
-349.99999999999977
 30
0.0
 11
-518.61945985523391
 21
-373.8125
 31
0.0
  0
LINE
  5
C11
  8
DIMNSIONS
 62
     7
 10
-525.0
 20
-349.99999999999977
 30
0.0
 11
-531.38054014476609
 21
-373.8125
 31
0.0
  0
LINE
  5
C12
  8
DIMNSIONS
  6
CONTINUOUS
 62
     7
 10
-525.0
 20
-349.99999999999977
 30
0.0
 11
-525.0
 21
-375.72916500000002
 31
0.0
  0
LINE
  5
C13
  8
DIMNSIONS
 62
     7
 10
-525.0
 20
-345.99999999999977
 30
0.0
 11
-531.38054014476609
 21
-322.18749999999977
 31
0.0
  0
LINE
  5
C14
  8
DIMNSIONS
 62
     7
 10
-525.0
 20
-345.99999999999977
 30
0.0
 11
-518.61945985523391
 21
-322.18749999999977
 31
0.0
  0
LINE
  5
C15
  8
DIMNSIONS
  6
CONTINUOUS
 62
     7
 10
-525.0
 20
-345.99999999999977
 30
0.0
 11
-525.0
 21
-308.49999996228121
 31
0.0
  0
TEXT
  5
C16
  8
DIMNSIONS
 62
     7
 10
-537.79166599999985
 20
-375.72916500000002
 30
0.0
 40
21.166664000000001
  1
4
 50
90.0
 41
0.75
 11
-558.95832999999993
 21
-375.72916500000002
 31
0.0
 73
     3
  0
LINE
  5
C17
  8
DIMNSIONS
  6
CONTINUOUS
 62
     7
 10
100.0
 20
-589.99999994412053
 30
0.0
 11
100.0
 21
-627.49999994412053
 31
0.0
  0
LINE
  5
C18
  8
DIMNSIONS
  6
CONTINUOUS
 62
     7
 10
398.0
 20
-555.57499994412035
 30
0.0
 11
398.0
 21
-627.49999994412053
 31
0.0
  0
LINE
  5
C19
  8
DIMNSIONS
 62
     7
 10
100.0
 20
-612.49999999999989
 30
0.0
 11
123.8124999999999
 21
-606.11945985523357
 31
0.0
  0
LINE
  5
C1A
  8
DIMNSIONS
 62
     7
 10
100.0
 20
-612.49999999999989
 30
0.0
 11
123.8124999999999
 21
-618.88054014476575
 31
0.0
  0
LINE
  5
C1B
  8
DIMNSIONS
 62
     7
 10
398.0
 20
-612.49999999999989
 30
0.0
 11
374.1875
 21
-618.88054014476575
 31
0.0
  0
LINE
  5
C1C
  8
DIMNSIONS
 62
     7
 10
398.0
 20
-612.49999999999989
 30
0.0
 11
374.1875
 21
-606.11945985523357
 31
0.0
  0
LINE
  5
C1D
  8
DIMNSIONS
  6
CONTINUOUS
 62
     7
 10
100.0
 20
-612.49999999999989
 30
0.0
 11
398.0
 21
-612.49999999999989
 31
0.0
  0
TEXT
  5
C1E
  8
DIMNSIONS
 62
     7
 10
229.15625249999991
 20
-599.7083339999997
 30
0.0
 40
21.166664000000001
  1
298
 41
0.75
 11
229.15625249999991
 21
-578.54166999999984
 31
0.0
 73
     3
  0
LINE
  5
C1F
  8
DIMNSIONS
  6
CONTINUOUS
 62
     7
 10
414.4999999441207
 20
-479.92499999999978
 30
0.0
 11
489.9999999441207
 21
-479.92499999999978
 31
0.0
  0
LINE
  5
C20
  8
DIMNSIONS
  6
CONTINUOUS
 62
     7
 10
414.4999999441207
 20
-537.07499999999993
 30
0.0
 11
489.9999999441207
 21
-537.07499999999993
 31
0.0
  0
LINE
  5
C21
  8
DIMNSIONS
 62
     7
 10
475.0
 20
-479.92499999999978
 30
0.0
 11
481.38054014476609
 21
-503.73749999999978
 31
0.0
  0
LINE
  5
C22
  8
DIMNSIONS
 62
     7
 10
475.0
 20
-479.92499999999978
 30
0.0
 11
468.61945985523391
 21
-503.73749999999978
 31
0.0
  0
LINE
  5
C23
  8
DIMNSIONS
 62
     7
 10
475.0
 20
-537.07499999999993
 30
0.0
 11
468.61945985523391
 21
-513.26249999999993
 31
0.0
  0
LINE
  5
C24
  8
DIMNSIONS
 62
     7
 10
475.0
 20
-537.07499999999993
 30
0.0
 11
481.38054014476609
 21
-513.26249999999993
 31
0.0
  0
LINE
  5
C25
  8
DIMNSIONS
  6
CONTINUOUS
 62
     7
 10
475.0
 20
-479.92499999999978
 30
0.0
 11
475.0
 21
-537.07499999999993
 31
0.0
  0
TEXT
  5
C26
  8
DIMNSIONS
 62
     7
 10
463.26666599999987
 20
-529.66667000000007
 30
0.0
 40
16.933336000000001
  1
57.2
 50
90.0
 41
0.75
 11
446.33332999999999
 21
-529.66667000000007
 31
0.0
 73
     3
  0
LINE
  5
C27
  8
DIMNSIONS
  6
CONTINUOUS
 62
     7
 10
425.99999994412042
 20
-442.0
 30
0.0
 11
490.03379994412052
 21
-442.0
 31
0.0
  0
LINE
  5
C28
  8
DIMNSIONS
  6
CONTINUOUS
 62
     7
 10
414.4999999441207
 20
-479.92499999999978
 30
0.0
 11
490.03379994412052
 21
-479.92499999999978
 31
0.0
  0
LINE
  5
C29
  8
DIMNSIONS
  6
CONTINUOUS
 62
     7
 10
475.03379999999999
 20
-479.92499999999978
 30
0.0
 11
475.03379999999999
 21
-442.0
 31
0.0
  0
LINE
  5
C2A
  8
DIMNSIONS
 62
     7
 10
475.03379999999999
 20
-442.0
 30
0.0
 11
468.65325985523378
 21
-418.18749999999989
 31
0.0
  0
LINE
  5
C2B
  8
DIMNSIONS
 62
     7
 10
475.03379999999999
 20
-442.0
 30
0.0
 11
481.41434014476602
 21
-418.18749999999989
 31
0.0
  0
LINE
  5
C2C
  8
DIMNSIONS
  6
CONTINUOUS
 62
     7
 10
475.03379999999999
 20
-442.0
 30
0.0
 11
475.03379999999999
 21
-382.66665999999992
 31
0.0
  0
LINE
  5
C2D
  8
DIMNSIONS
 62
     7
 10
475.03379999999999
 20
-479.92499999999978
 30
0.0
 11
481.41434014476602
 21
-503.73749999999978
 31
0.0
  0
LINE
  5
C2E
  8
DIMNSIONS
 62
     7
 10
475.03379999999999
 20
-479.92499999999978
 30
0.0
 11
468.65325985523378
 21
-503.73749999999978
 31
0.0
  0
LINE
  5
C2F
  8
DIMNSIONS
  6
CONTINUOUS
 62
     7
 10
475.03379999999999
 20
-479.92499999999978
 30
0.0
 11
475.03379999999999
 21
-517.42500003771852
 31
0.0
  0
TEXT
  5
C30
  8
DIMNSIONS
 62
     7
 10
463.30046599999991
 20
-425.0
 30
0.0
 40
16.933336000000001
  1
37.9
 50
90.0
 41
0.75
 11
446.36712999999992
 21
-425.0
 31
0.0
 73
     3
  0
LINE
  5
C31
  8
DIMNSIONS
  6
CONTINUOUS
 62
     7
 10
-105.3145499441205
 20
-354.99999999999977
 30
0.0
 11
-489.9999999441207
 21
-354.99999999999977
 31
0.0
  0
LINE
  5
C32
  8
DIMNSIONS
  6
CONTINUOUS
 62
     7
 10
-464.9999999441207
 20
-349.99999999999977
 30
0.0
 11
-489.9999999441207
 21
-349.99999999999977
 31
0.0
  0
LINE
  5
C33
  8
DIMNSIONS
  6
CONTINUOUS
 62
     7
 10
-475.0
 20
-349.99999999999977
 30
0.0
 11
-475.0
 21
-354.99999999999977
 31
0.0
  0
LINE
  5
C34
  8
DIMNSIONS
 62
     7
 10
-475.0
 20
-354.99999999999977
 30
0.0
 11
-468.61945985523391
 21
-378.81249999999989
 31
0.0
  0
LINE
  5
C35
  8
DIMNSIONS
 62
     7
 10
-475.0
 20
-354.99999999999977
 30
0.0
 11
-481.38054014476609
 21
-378.81249999999989
 31
0.0
  0
LINE
  5
C36
  8
DIMNSIONS
  6
CONTINUOUS
 62
     7
 10
-475.0
 20
-354.99999999999977
 30
0.0
 11
-475.0
 21
-376.22916500000002
 31
0.0
  0
LINE
  5
C37
  8
DIMNSIONS
 62
     7
 10
-475.0
 20
-349.99999999999977
 30
0.0
 11
-481.38054014476609
 21
-326.18749999999977
 31
0.0
  0
LINE
  5
C38
  8
DIMNSIONS
 62
     7
 10
-475.0
 20
-349.99999999999977
 30
0.0
 11
-468.61945985523391
 21
-326.18749999999977
 31
0.0
  0
LINE
  5
C39
  8
DIMNSIONS
  6
CONTINUOUS
 62
     7
 10
-475.0
 20
-349.99999999999977
 30
0.0
 11
-475.0
 21
-312.49999996228121
 31
0.0
  0
TEXT
  5
C3A
  8
DIMNSIONS
 62
     7
 10
-487.79166599999991
 20
-376.22916500000002
 30
0.0
 40
21.166664000000001
  1
5
 50
90.0
 41
0.75
 11
-508.95832999999988
 21
-376.22916500000002
 31
0.0
 73
     3
  0
TEXT
  5
C3B
  8
DATA
 62
     7
 10
475.0
 20
-720.23749999999961
 30
0.0
 40
19.050000000000001
  1
CE1000 & CE2000
 41
0.75
 11
475.0
 21
-701.18749999999955
 31
0.0
 73
     3
  0
TEXT
  5
C3C
  8
DATA
 62
     7
 10
475.0
 20
-672.75774999999953
 30
0.0
 40
19.050000000000001
  1
Amcron
 41
0.75
 11
475.0
 21
-653.70774999999958
 31
0.0
 73
     3
  0
LINE
  5
C3D
  8
DATA
  6
CONTINUOUS
 62
     7
 10
-450.0
 20
-574.99999999999989
 30
0.0
 11
-450.0
 21
-442.0
 31
0.0
  0
LINE
  5
C3E
  8
DATA
  6
CONTINUOUS
 62
     7
 10
33.499999999999972
 20
-574.99999999999989
 30
0.0
 11
-450.0
 21
-574.99999999999989
 31
0.0
  0
LINE
  5
C3F
  8
DATA
  6
CONTINUOUS
 62
     7
 10
33.499999999999972
 20
-442.0
 30
0.0
 11
33.499999999999972
 21
-574.99999999999989
 31
0.0
  0
LINE
  5
C40
  8
DATA
  6
CONTINUOUS
 62
     7
 10
-450.0
 20
-442.0
 30
0.0
 11
33.499999999999972
 21
-442.0
 31
0.0
  0
LINE
  5
C41
  8
DATA
  6
CONTINUOUS
 62
     7
 10
-419.19999999999987
 20
-574.99999999999989
 30
0.0
 11
-419.19999999999987
 21
-442.0
 31
0.0
  0
CIRCLE
  5
C42
  8
DATA
  6
CONTINUOUS
 62
     7
 10
-429.0
 20
-452.0
 30
0.0
 40
2.25
  0
CIRCLE
  5
C43
  8
DATA
  6
CONTINUOUS
 62
     7
 10
-429.0
 20
-564.99999999999966
 30
0.0
 40
2.25
  0
LINE
  5
C44
  8
DATA
  6
CONTINUOUS
 62
     7
 10
2.6999999999999882
 20
-574.99999999999989
 30
0.0
 11
2.6999999999999882
 21
-442.0
 31
0.0
  0
CIRCLE
  5
C45
  8
DATA
  6
CONTINUOUS
 62
     7
 10
12.5
 20
-452.0
 30
0.0
 40
2.25
  0
CIRCLE
  5
C46
  8
DATA
  6
CONTINUOUS
 62
     7
 10
12.5
 20
-564.99999999999966
 30
0.0
 40
2.25
  0
LINE
  5
C47
  8
DATA
  6
CONTINUOUS
 62
     7
 10
-410.55000000000001
 20
-460.14999999999992
 30
0.0
 11
-375.75
 21
-460.14999999999992
 31
0.0
  0
LINE
  5
C48
  8
DATA
  6
CONTINUOUS
 62
     7
 10
-410.55000000000001
 20
-466.55000000000001
 30
0.0
 11
-375.75
 21
-466.55000000000001
 31
0.0
  0
ARC
  5
C49
  8
DATA
  6
CONTINUOUS
 62
     7
 10
-375.75
 20
-463.3499999999998
 30
0.0
 40
3.2000000000000441
 50
270.0
 51
90.0
  0
ARC
  5
C4A
  8
DATA
  6
CONTINUOUS
 62
     7
 10
-410.55000000000001
 20
-463.3499999999998
 30
0.0
 40
3.19999999999993
 50
90.0
 51
270.0
  0
LINE
  5
C4B
  8
DATA
  6
CONTINUOUS
 62
     7
 10
-410.55000000000001
 20
-469.14999999999992
 30
0.0
 11
-375.75
 21
-469.14999999999992
 31
0.0
  0
LINE
  5
C4C
  8
DATA
  6
CONTINUOUS
 62
     7
 10
-410.55000000000001
 20
-475.55000000000001
 30
0.0
 11
-375.75
 21
-475.55000000000001
 31
0.0
  0
ARC
  5
C4D
  8
DATA
  6
CONTINUOUS
 62
     7
 10
-375.75
 20
-472.34999999999991
 30
0.0
 40
3.2000000000000441
 50
270.0
 51
90.0
  0
ARC
  5
C4E
  8
DATA
  6
CONTINUOUS
 62
     7
 10
-410.55000000000001
 20
-472.34999999999991
 30
0.0
 40
3.19999999999993
 50
90.0
 51
270.0
  0
LINE
  5
C4F
  8
DATA
  6
CONTINUOUS
 62
     7
 10
-410.55000000000001
 20
-478.14999999999998
 30
0.0
 11
-375.75
 21
-478.14999999999998
 31
0.0
  0
LINE
  5
C50
  8
DATA
  6
CONTINUOUS
 62
     7
 10
-410.55000000000001
 20
-484.55000000000001
 30
0.0
 11
-375.75
 21
-484.55000000000001
 31
0.0
  0
ARC
  5
C51
  8
DATA
  6
CONTINUOUS
 62
     7
 10
-375.75
 20
-481.34999999999991
 30
0.0
 40
3.2000000000000441
 50
270.0
 51
90.0
  0
ARC
  5
C52
  8
DATA
  6
CONTINUOUS
 62
     7
 10
-410.55000000000001
 20
-481.34999999999991
 30
0.0
 40
3.19999999999993
 50
90.0
 51
270.0
  0
LINE
  5
C53
  8
DATA
  6
CONTINUOUS
 62
     7
 10
-410.55000000000001
 20
-487.14999999999998
 30
0.0
 11
-375.75
 21
-487.14999999999998
 31
0.0
  0
LINE
  5
C54
  8
DATA
  6
CONTINUOUS
 62
     7
 10
-410.55000000000001
 20
-493.55000000000001
 30
0.0
 11
-375.75
 21
-493.55000000000001
 31
0.0
  0
ARC
  5
C55
  8
DATA
  6
CONTINUOUS
 62
     7
 10
-375.75
 20
-490.34999999999991
 30
0.0
 40
3.2000000000000441
 50
270.0
 51
90.0
  0
ARC
  5
C56
  8
DATA
  6
CONTINUOUS
 62
     7
 10
-410.55000000000001
 20
-490.34999999999991
 30
0.0
 40
3.19999999999993
 50
90.0
 51
270.0
  0
LINE
  5
C57
  8
DATA
  6
CONTINUOUS
 62
     7
 10
-410.55000000000001
 20
-496.14999999999998
 30
0.0
 11
-375.75
 21
-496.14999999999998
 31
0.0
  0
LINE
  5
C58
  8
DATA
  6
CONTINUOUS
 62
     7
 10
-410.55000000000001
 20
-502.55000000000001
 30
0.0
 11
-375.75
 21
-502.55000000000001
 31
0.0
  0
ARC
  5
C59
  8
DATA
  6
CONTINUOUS
 62
     7
 10
-375.75
 20
-499.34999999999991
 30
0.0
 40
3.2000000000000441
 50
270.0
 51
90.0
  0
ARC
  5
C5A
  8
DATA
  6
CONTINUOUS
 62
     7
 10
-410.55000000000001
 20
-499.34999999999991
 30
0.0
 40
3.19999999999993
 50
90.0
 51
270.0
  0
LINE
  5
C5B
  8
DATA
  6
CONTINUOUS
 62
     7
 10
-410.55000000000001
 20
-505.14999999999981
 30
0.0
 11
-375.75
 21
-505.14999999999981
 31
0.0
  0
LINE
  5
C5C
  8
DATA
  6
CONTINUOUS
 62
     7
 10
-410.55000000000001
 20
-511.54999999999978
 30
0.0
 11
-375.75
 21
-511.54999999999978
 31
0.0
  0
ARC
  5
C5D
  8
DATA
  6
CONTINUOUS
 62
     7
 10
-375.75
 20
-508.34999999999991
 30
0.0
 40
3.2000000000000441
 50
270.0
 51
90.0
  0
ARC
  5
C5E
  8
DATA
  6
CONTINUOUS
 62
     7
 10
-410.55000000000001
 20
-508.34999999999991
 30
0.0
 40
3.19999999999993
 50
90.0
 51
270.0
  0
LINE
  5
C5F
  8
DATA
  6
CONTINUOUS
 62
     7
 10
-410.55000000000001
 20
-514.14999999999986
 30
0.0
 11
-375.75
 21
-514.14999999999986
 31
0.0
  0
LINE
  5
C60
  8
DATA
  6
CONTINUOUS
 62
     7
 10
-410.55000000000001
 20
-520.54999999999995
 30
0.0
 11
-375.75
 21
-520.54999999999995
 31
0.0
  0
ARC
  5
C61
  8
DATA
  6
CONTINUOUS
 62
     7
 10
-375.75
 20
-517.34999999999968
 30
0.0
 40
3.2000000000000441
 50
270.0
 51
90.0
  0
ARC
  5
C62
  8
DATA
  6
CONTINUOUS
 62
     7
 10
-410.55000000000001
 20
-517.34999999999968
 30
0.0
 40
3.19999999999993
 50
90.0
 51
270.0
  0
LINE
  5
C63
  8
DATA
  6
CONTINUOUS
 62
     7
 10
-410.55000000000001
 20
-523.14999999999986
 30
0.0
 11
-375.75
 21
-523.14999999999986
 31
0.0
  0
LINE
  5
C64
  8
DATA
  6
CONTINUOUS
 62
     7
 10
-410.55000000000001
 20
-529.54999999999995
 30
0.0
 11
-375.75
 21
-529.54999999999995
 31
0.0
  0
ARC
  5
C65
  8
DATA
  6
CONTINUOUS
 62
     7
 10
-375.75
 20
-526.34999999999991
 30
0.0
 40
3.2000000000000441
 50
270.0
 51
90.0
  0
ARC
  5
C66
  8
DATA
  6
CONTINUOUS
 62
     7
 10
-410.55000000000001
 20
-526.34999999999991
 30
0.0
 40
3.19999999999993
 50
90.0
 51
270.0
  0
LINE
  5
C67
  8
DATA
  6
CONTINUOUS
 62
     7
 10
-365.05000000000001
 20
-460.14999999999992
 30
0.0
 11
-330.24999999999977
 21
-460.14999999999992
 31
0.0
  0
LINE
  5
C68
  8
DATA
  6
CONTINUOUS
 62
     7
 10
-365.05000000000001
 20
-466.55000000000001
 30
0.0
 11
-330.24999999999977
 21
-466.55000000000001
 31
0.0
  0
ARC
  5
C69
  8
DATA
  6
CONTINUOUS
 62
     7
 10
-330.24999999999977
 20
-463.3499999999998
 30
0.0
 40
3.2000000000000441
 50
270.0
 51
90.0
  0
ARC
  5
C6A
  8
DATA
  6
CONTINUOUS
 62
     7
 10
-365.05000000000001
 20
-463.3499999999998
 30
0.0
 40
3.19999999999993
 50
90.0
 51
270.0
  0
LINE
  5
C6B
  8
DATA
  6
CONTINUOUS
 62
     7
 10
-365.05000000000001
 20
-469.14999999999992
 30
0.0
 11
-330.24999999999977
 21
-469.14999999999992
 31
0.0
  0
LINE
  5
C6C
  8
DATA
  6
CONTINUOUS
 62
     7
 10
-365.05000000000001
 20
-475.55000000000001
 30
0.0
 11
-330.24999999999977
 21
-475.55000000000001
 31
0.0
  0
ARC
  5
C6D
  8
DATA
  6
CONTINUOUS
 62
     7
 10
-330.24999999999977
 20
-472.34999999999991
 30
0.0
 40
3.2000000000000441
 50
270.0
 51
90.0
  0
ARC
  5
C6E
  8
DATA
  6
CONTINUOUS
 62
     7
 10
-365.05000000000001
 20
-472.34999999999991
 30
0.0
 40
3.19999999999993
 50
90.0
 51
270.0
  0
LINE
  5
C6F
  8
DATA
  6
CONTINUOUS
 62
     7
 10
-365.05000000000001
 20
-478.14999999999998
 30
0.0
 11
-330.24999999999977
 21
-478.14999999999998
 31
0.0
  0
LINE
  5
C70
  8
DATA
  6
CONTINUOUS
 62
     7
 10
-365.05000000000001
 20
-484.55000000000001
 30
0.0
 11
-330.24999999999977
 21
-484.55000000000001
 31
0.0
  0
ARC
  5
C71
  8
DATA
  6
CONTINUOUS
 62
     7
 10
-330.24999999999977
 20
-481.34999999999991
 30
0.0
 40
3.2000000000000441
 50
270.0
 51
90.0
  0
ARC
  5
C72
  8
DATA
  6
CONTINUOUS
 62
     7
 10
-365.05000000000001
 20
-481.34999999999991
 30
0.0
 40
3.19999999999993
 50
90.0
 51
270.0
  0
LINE
  5
C73
  8
DATA
  6
CONTINUOUS
 62
     7
 10
-365.05000000000001
 20
-487.14999999999998
 30
0.0
 11
-330.24999999999977
 21
-487.14999999999998
 31
0.0
  0
LINE
  5
C74
  8
DATA
  6
CONTINUOUS
 62
     7
 10
-365.05000000000001
 20
-493.55000000000001
 30
0.0
 11
-330.24999999999977
 21
-493.55000000000001
 31
0.0
  0
ARC
  5
C75
  8
DATA
  6
CONTINUOUS
 62
     7
 10
-330.24999999999977
 20
-490.34999999999991
 30
0.0
 40
3.2000000000000441
 50
270.0
 51
90.0
  0
ARC
  5
C76
  8
DATA
  6
CONTINUOUS
 62
     7
 10
-365.05000000000001
 20
-490.34999999999991
 30
0.0
 40
3.19999999999993
 50
90.0
 51
270.0
  0
LINE
  5
C77
  8
DATA
  6
CONTINUOUS
 62
     7
 10
-365.05000000000001
 20
-496.14999999999998
 30
0.0
 11
-330.24999999999977
 21
-496.14999999999998
 31
0.0
  0
LINE
  5
C78
  8
DATA
  6
CONTINUOUS
 62
     7
 10
-365.05000000000001
 20
-502.55000000000001
 30
0.0
 11
-330.24999999999977
 21
-502.55000000000001
 31
0.0
  0
ARC
  5
C79
  8
DATA
  6
CONTINUOUS
 62
     7
 10
-330.24999999999977
 20
-499.34999999999991
 30
0.0
 40
3.2000000000000441
 50
270.0
 51
90.0
  0
ARC
  5
C7A
  8
DATA
  6
CONTINUOUS
 62
     7
 10
-365.05000000000001
 20
-499.34999999999991
 30
0.0
 40
3.19999999999993
 50
90.0
 51
270.0
  0
LINE
  5
C7B
  8
DATA
  6
CONTINUOUS
 62
     7
 10
-365.05000000000001
 20
-505.14999999999981
 30
0.0
 11
-330.24999999999977
 21
-505.14999999999981
 31
0.0
  0
LINE
  5
C7C
  8
DATA
  6
CONTINUOUS
 62
     7
 10
-365.05000000000001
 20
-511.54999999999978
 30
0.0
 11
-330.24999999999977
 21
-511.54999999999978
 31
0.0
  0
ARC
  5
C7D
  8
DATA
  6
CONTINUOUS
 62
     7
 10
-330.24999999999977
 20
-508.34999999999991
 30
0.0
 40
3.2000000000000441
 50
270.0
 51
90.0
  0
ARC
  5
C7E
  8
DATA
  6
CONTINUOUS
 62
     7
 10
-365.05000000000001
 20
-508.34999999999991
 30
0.0
 40
3.19999999999993
 50
90.0
 51
270.0
  0
LINE
  5
C7F
  8
DATA
  6
CONTINUOUS
 62
     7
 10
-365.05000000000001
 20
-514.14999999999986
 30
0.0
 11
-330.24999999999977
 21
-514.14999999999986
 31
0.0
  0
LINE
  5
C80
  8
DATA
  6
CONTINUOUS
 62
     7
 10
-365.05000000000001
 20
-520.54999999999995
 30
0.0
 11
-330.24999999999977
 21
-520.54999999999995
 31
0.0
  0
ARC
  5
C81
  8
DATA
  6
CONTINUOUS
 62
     7
 10
-330.24999999999977
 20
-517.34999999999968
 30
0.0
 40
3.2000000000000441
 50
270.0
 51
90.0
  0
ARC
  5
C82
  8
DATA
  6
CONTINUOUS
 62
     7
 10
-365.05000000000001
 20
-517.34999999999968
 30
0.0
 40
3.19999999999993
 50
90.0
 51
270.0
  0
LINE
  5
C83
  8
DATA
  6
CONTINUOUS
 62
     7
 10
-365.05000000000001
 20
-523.14999999999986
 30
0.0
 11
-330.24999999999977
 21
-523.14999999999986
 31
0.0
  0
LINE
  5
C84
  8
DATA
  6
CONTINUOUS
 62
     7
 10
-365.05000000000001
 20
-529.54999999999995
 30
0.0
 11
-330.24999999999977
 21
-529.54999999999995
 31
0.0
  0
ARC
  5
C85
  8
DATA
  6
CONTINUOUS
 62
     7
 10
-330.24999999999977
 20
-526.34999999999991
 30
0.0
 40
3.2000000000000441
 50
270.0
 51
90.0
  0
ARC
  5
C86
  8
DATA
  6
CONTINUOUS
 62
     7
 10
-365.05000000000001
 20
-526.34999999999991
 30
0.0
 40
3.19999999999993
 50
90.0
 51
270.0
  0
LINE
  5
C87
  8
DATA
  6
CONTINUOUS
 62
     7
 10
-5.9500000000000011
 20
-460.14999999999992
 30
0.0
 11
-40.750000000000007
 21
-460.14999999999992
 31
0.0
  0
LINE
  5
C88
  8
DATA
  6
CONTINUOUS
 62
     7
 10
-5.9500000000000011
 20
-466.55000000000001
 30
0.0
 11
-40.750000000000007
 21
-466.55000000000001
 31
0.0
  0
ARC
  5
C89
  8
DATA
  6
CONTINUOUS
 62
     7
 10
-40.750000000000007
 20
-463.3499999999998
 30
0.0
 40
3.19999999999993
 50
90.0
 51
270.0
  0
ARC
  5
C8A
  8
DATA
  6
CONTINUOUS
 62
     7
 10
-5.9500000000000011
 20
-463.3499999999998
 30
0.0
 40
3.2000000000000441
 50
270.0
 51
90.0
  0
LINE
  5
C8B
  8
DATA
  6
CONTINUOUS
 62
     7
 10
-5.9500000000000011
 20
-469.14999999999992
 30
0.0
 11
-40.750000000000007
 21
-469.14999999999992
 31
0.0
  0
LINE
  5
C8C
  8
DATA
  6
CONTINUOUS
 62
     7
 10
-5.9500000000000011
 20
-475.55000000000001
 30
0.0
 11
-40.750000000000007
 21
-475.55000000000001
 31
0.0
  0
ARC
  5
C8D
  8
DATA
  6
CONTINUOUS
 62
     7
 10
-40.750000000000007
 20
-472.34999999999991
 30
0.0
 40
3.19999999999993
 50
90.0
 51
270.0
  0
ARC
  5
C8E
  8
DATA
  6
CONTINUOUS
 62
     7
 10
-5.9500000000000011
 20
-472.34999999999991
 30
0.0
 40
3.2000000000000441
 50
270.0
 51
90.0
  0
LINE
  5
C8F
  8
DATA
  6
CONTINUOUS
 62
     7
 10
-5.9500000000000011
 20
-478.14999999999998
 30
0.0
 11
-40.750000000000007
 21
-478.14999999999998
 31
0.0
  0
LINE
  5
C90
  8
DATA
  6
CONTINUOUS
 62
     7
 10
-5.9500000000000011
 20
-484.55000000000001
 30
0.0
 11
-40.750000000000007
 21
-484.55000000000001
 31
0.0
  0
ARC
  5
C91
  8
DATA
  6
CONTINUOUS
 62
     7
 10
-40.750000000000007
 20
-481.34999999999991
 30
0.0
 40
3.19999999999993
 50
90.0
 51
270.0
  0
ARC
  5
C92
  8
DATA
  6
CONTINUOUS
 62
     7
 10
-5.9500000000000011
 20
-481.34999999999991
 30
0.0
 40
3.2000000000000441
 50
270.0
 51
90.0
  0
LINE
  5
C93
  8
DATA
  6
CONTINUOUS
 62
     7
 10
-5.9500000000000011
 20
-487.14999999999998
 30
0.0
 11
-40.750000000000007
 21
-487.14999999999998
 31
0.0
  0
LINE
  5
C94
  8
DATA
  6
CONTINUOUS
 62
     7
 10
-5.9500000000000011
 20
-493.55000000000001
 30
0.0
 11
-40.750000000000007
 21
-493.55000000000001
 31
0.0
  0
ARC
  5
C95
  8
DATA
  6
CONTINUOUS
 62
     7
 10
-40.750000000000007
 20
-490.34999999999991
 30
0.0
 40
3.19999999999993
 50
90.0
 51
270.0
  0
ARC
  5
C96
  8
DATA
  6
CONTINUOUS
 62
     7
 10
-5.9500000000000011
 20
-490.34999999999991
 30
0.0
 40
3.2000000000000441
 50
270.0
 51
90.0
  0
LINE
  5
C97
  8
DATA
  6
CONTINUOUS
 62
     7
 10
-5.9500000000000011
 20
-496.14999999999998
 30
0.0
 11
-40.750000000000007
 21
-496.14999999999998
 31
0.0
  0
LINE
  5
C98
  8
DATA
  6
CONTINUOUS
 62
     7
 10
-5.9500000000000011
 20
-502.55000000000001
 30
0.0
 11
-40.750000000000007
 21
-502.55000000000001
 31
0.0
  0
ARC
  5
C99
  8
DATA
  6
CONTINUOUS
 62
     7
 10
-40.750000000000007
 20
-499.34999999999991
 30
0.0
 40
3.19999999999993
 50
90.0
 51
270.0
  0
ARC
  5
C9A
  8
DATA
  6
CONTINUOUS
 62
     7
 10
-5.9500000000000011
 20
-499.34999999999991
 30
0.0
 40
3.2000000000000441
 50
270.0
 51
90.0
  0
LINE
  5
C9B
  8
DATA
  6
CONTINUOUS
 62
     7
 10
-5.9500000000000011
 20
-505.14999999999981
 30
0.0
 11
-40.750000000000007
 21
-505.14999999999981
 31
0.0
  0
LINE
  5
C9C
  8
DATA
  6
CONTINUOUS
 62
     7
 10
-5.9500000000000011
 20
-511.54999999999978
 30
0.0
 11
-40.750000000000007
 21
-511.54999999999978
 31
0.0
  0
ARC
  5
C9D
  8
DATA
  6
CONTINUOUS
 62
     7
 10
-40.750000000000007
 20
-508.34999999999991
 30
0.0
 40
3.19999999999993
 50
90.0
 51
270.0
  0
ARC
  5
C9E
  8
DATA
  6
CONTINUOUS
 62
     7
 10
-5.9500000000000011
 20
-508.34999999999991
 30
0.0
 40
3.2000000000000441
 50
270.0
 51
90.0
  0
LINE
  5
C9F
  8
DATA
  6
CONTINUOUS
 62
     7
 10
-5.9500000000000011
 20
-514.14999999999986
 30
0.0
 11
-40.750000000000007
 21
-514.14999999999986
 31
0.0
  0
LINE
  5
CA0
  8
DATA
  6
CONTINUOUS
 62
     7
 10
-5.9500000000000011
 20
-520.54999999999995
 30
0.0
 11
-40.750000000000007
 21
-520.54999999999995
 31
0.0
  0
ARC
  5
CA1
  8
DATA
  6
CONTINUOUS
 62
     7
 10
-40.750000000000007
 20
-517.34999999999968
 30
0.0
 40
3.19999999999993
 50
90.0
 51
270.0
  0
ARC
  5
CA2
  8
DATA
  6
CONTINUOUS
 62
     7
 10
-5.9500000000000011
 20
-517.34999999999968
 30
0.0
 40
3.2000000000000441
 50
270.0
 51
90.0
  0
LINE
  5
CA3
  8
DATA
  6
CONTINUOUS
 62
     7
 10
-5.9500000000000011
 20
-523.14999999999986
 30
0.0
 11
-40.750000000000007
 21
-523.14999999999986
 31
0.0
  0
LINE
  5
CA4
  8
DATA
  6
CONTINUOUS
 62
     7
 10
-5.9500000000000011
 20
-529.54999999999995
 30
0.0
 11
-40.750000000000007
 21
-529.54999999999995
 31
0.0
  0
ARC
  5
CA5
  8
DATA
  6
CONTINUOUS
 62
     7
 10
-40.750000000000007
 20
-526.34999999999991
 30
0.0
 40
3.19999999999993
 50
90.0
 51
270.0
  0
ARC
  5
CA6
  8
DATA
  6
CONTINUOUS
 62
     7
 10
-5.9500000000000011
 20
-526.34999999999991
 30
0.0
 40
3.2000000000000441
 50
270.0
 51
90.0
  0
LINE
  5
CA7
  8
DATA
  6
CONTINUOUS
 62
     7
 10
-51.450000000000003
 20
-460.14999999999992
 30
0.0
 11
-86.249999999999986
 21
-460.14999999999992
 31
0.0
  0
LINE
  5
CA8
  8
DATA
  6
CONTINUOUS
 62
     7
 10
-51.450000000000003
 20
-466.55000000000001
 30
0.0
 11
-86.249999999999986
 21
-466.55000000000001
 31
0.0
  0
ARC
  5
CA9
  8
DATA
  6
CONTINUOUS
 62
     7
 10
-86.249999999999986
 20
-463.3499999999998
 30
0.0
 40
3.19999999999993
 50
90.0
 51
270.0
  0
ARC
  5
CAA
  8
DATA
  6
CONTINUOUS
 62
     7
 10
-51.450000000000003
 20
-463.3499999999998
 30
0.0
 40
3.2000000000000441
 50
270.0
 51
90.0
  0
LINE
  5
CAB
  8
DATA
  6
CONTINUOUS
 62
     7
 10
-51.450000000000003
 20
-469.14999999999992
 30
0.0
 11
-86.249999999999986
 21
-469.14999999999992
 31
0.0
  0
LINE
  5
CAC
  8
DATA
  6
CONTINUOUS
 62
     7
 10
-51.450000000000003
 20
-475.55000000000001
 30
0.0
 11
-86.249999999999986
 21
-475.55000000000001
 31
0.0
  0
ARC
  5
CAD
  8
DATA
  6
CONTINUOUS
 62
     7
 10
-86.249999999999986
 20
-472.34999999999991
 30
0.0
 40
3.19999999999993
 50
90.0
 51
270.0
  0
ARC
  5
CAE
  8
DATA
  6
CONTINUOUS
 62
     7
 10
-51.450000000000003
 20
-472.34999999999991
 30
0.0
 40
3.2000000000000441
 50
270.0
 51
90.0
  0
LINE
  5
CAF
  8
DATA
  6
CONTINUOUS
 62
     7
 10
-51.450000000000003
 20
-478.14999999999998
 30
0.0
 11
-86.249999999999986
 21
-478.14999999999998
 31
0.0
  0
LINE
  5
CB0
  8
DATA
  6
CONTINUOUS
 62
     7
 10
-51.450000000000003
 20
-484.55000000000001
 30
0.0
 11
-86.249999999999986
 21
-484.55000000000001
 31
0.0
  0
ARC
  5
CB1
  8
DATA
  6
CONTINUOUS
 62
     7
 10
-86.249999999999986
 20
-481.34999999999991
 30
0.0
 40
3.19999999999993
 50
90.0
 51
270.0
  0
ARC
  5
CB2
  8
DATA
  6
CONTINUOUS
 62
     7
 10
-51.450000000000003
 20
-481.34999999999991
 30
0.0
 40
3.2000000000000441
 50
270.0
 51
90.0
  0
LINE
  5
CB3
  8
DATA
  6
CONTINUOUS
 62
     7
 10
-51.450000000000003
 20
-487.14999999999998
 30
0.0
 11
-86.249999999999986
 21
-487.14999999999998
 31
0.0
  0
LINE
  5
CB4
  8
DATA
  6
CONTINUOUS
 62
     7
 10
-51.450000000000003
 20
-493.55000000000001
 30
0.0
 11
-86.249999999999986
 21
-493.55000000000001
 31
0.0
  0
ARC
  5
CB5
  8
DATA
  6
CONTINUOUS
 62
     7
 10
-86.249999999999986
 20
-490.34999999999991
 30
0.0
 40
3.19999999999993
 50
90.0
 51
270.0
  0
ARC
  5
CB6
  8
DATA
  6
CONTINUOUS
 62
     7
 10
-51.450000000000003
 20
-490.34999999999991
 30
0.0
 40
3.2000000000000441
 50
270.0
 51
90.0
  0
LINE
  5
CB7
  8
DATA
  6
CONTINUOUS
 62
     7
 10
-51.450000000000003
 20
-496.14999999999998
 30
0.0
 11
-86.249999999999986
 21
-496.14999999999998
 31
0.0
  0
LINE
  5
CB8
  8
DATA
  6
CONTINUOUS
 62
     7
 10
-51.450000000000003
 20
-502.55000000000001
 30
0.0
 11
-86.249999999999986
 21
-502.55000000000001
 31
0.0
  0
ARC
  5
CB9
  8
DATA
  6
CONTINUOUS
 62
     7
 10
-86.249999999999986
 20
-499.34999999999991
 30
0.0
 40
3.19999999999993
 50
90.0
 51
270.0
  0
ARC
  5
CBA
  8
DATA
  6
CONTINUOUS
 62
     7
 10
-51.450000000000003
 20
-499.34999999999991
 30
0.0
 40
3.2000000000000441
 50
270.0
 51
90.0
  0
LINE
  5
CBB
  8
DATA
  6
CONTINUOUS
 62
     7
 10
-51.450000000000003
 20
-505.14999999999981
 30
0.0
 11
-86.249999999999986
 21
-505.14999999999981
 31
0.0
  0
LINE
  5
CBC
  8
DATA
  6
CONTINUOUS
 62
     7
 10
-51.450000000000003
 20
-511.54999999999978
 30
0.0
 11
-86.249999999999986
 21
-511.54999999999978
 31
0.0
  0
ARC
  5
CBD
  8
DATA
  6
CONTINUOUS
 62
     7
 10
-86.249999999999986
 20
-508.34999999999991
 30
0.0
 40
3.19999999999993
 50
90.0
 51
270.0
  0
ARC
  5
CBE
  8
DATA
  6
CONTINUOUS
 62
     7
 10
-51.450000000000003
 20
-508.34999999999991
 30
0.0
 40
3.2000000000000441
 50
270.0
 51
90.0
  0
LINE
  5
CBF
  8
DATA
  6
CONTINUOUS
 62
     7
 10
-51.450000000000003
 20
-514.14999999999986
 30
0.0
 11
-86.249999999999986
 21
-514.14999999999986
 31
0.0
  0
LINE
  5
CC0
  8
DATA
  6
CONTINUOUS
 62
     7
 10
-51.450000000000003
 20
-520.54999999999995
 30
0.0
 11
-86.249999999999986
 21
-520.54999999999995
 31
0.0
  0
ARC
  5
CC1
  8
DATA
  6
CONTINUOUS
 62
     7
 10
-86.249999999999986
 20
-517.34999999999968
 30
0.0
 40
3.19999999999993
 50
90.0
 51
270.0
  0
ARC
  5
CC2
  8
DATA
  6
CONTINUOUS
 62
     7
 10
-51.450000000000003
 20
-517.34999999999968
 30
0.0
 40
3.2000000000000441
 50
270.0
 51
90.0
  0
LINE
  5
CC3
  8
DATA
  6
CONTINUOUS
 62
     7
 10
-51.450000000000003
 20
-523.14999999999986
 30
0.0
 11
-86.249999999999986
 21
-523.14999999999986
 31
0.0
  0
LINE
  5
CC4
  8
DATA
  6
CONTINUOUS
 62
     7
 10
-51.450000000000003
 20
-529.54999999999995
 30
0.0
 11
-86.249999999999986
 21
-529.54999999999995
 31
0.0
  0
ARC
  5
CC5
  8
DATA
  6
CONTINUOUS
 62
     7
 10
-86.249999999999986
 20
-526.34999999999991
 30
0.0
 40
3.19999999999993
 50
90.0
 51
270.0
  0
ARC
  5
CC6
  8
DATA
  6
CONTINUOUS
 62
     7
 10
-51.450000000000003
 20
-526.34999999999991
 30
0.0
 40
3.2000000000000441
 50
270.0
 51
90.0
  0
LINE
  5
CC7
  8
DATA
  6
CONTINUOUS
 62
     7
 10
-450.0
 20
75.0
 30
0.0
 11
-450.0
 21
207.6999999999999
 31
0.0
  0
LINE
  5
CC8
  8
DATA
  6
CONTINUOUS
 62
     7
 10
33.499999999999972
 20
75.0
 30
0.0
 11
-450.0
 21
75.0
 31
0.0
  0
LINE
  5
CC9
  8
DATA
  6
CONTINUOUS
 62
     7
 10
33.499999999999972
 20
207.6999999999999
 30
0.0
 11
33.499999999999972
 21
75.0
 31
0.0
  0
LINE
  5
CCA
  8
DATA
  6
CONTINUOUS
 62
     7
 10
-450.0
 20
207.6999999999999
 30
0.0
 11
33.499999999999972
 21
207.6999999999999
 31
0.0
  0
LINE
  5
CCB
  8
DATA
  6
CONTINUOUS
 62
     7
 10
-423.24999999999989
 20
81.5
 30
0.0
 11
-423.24999999999989
 21
207.52391999999989
 31
0.0
  0
CIRCLE
  5
CCC
  8
DATA
  6
CONTINUOUS
 62
     7
 10
-429.0
 20
197.84999999999999
 30
0.0
 40
2.25
  0
CIRCLE
  5
CCD
  8
DATA
  6
CONTINUOUS
 62
     7
 10
-429.0
 20
84.849999999999966
 30
0.0
 40
2.25
  0
LINE
  5
CCE
  8
DATA
  6
CONTINUOUS
 62
     7
 10
6.75
 20
81.5
 30
0.0
 11
6.75
 21
207.52391999999989
 31
0.0
  0
CIRCLE
  5
CCF
  8
DATA
  6
CONTINUOUS
 62
     7
 10
12.5
 20
197.84999999999999
 30
0.0
 40
2.25
  0
CIRCLE
  5
CD0
  8
DATA
  6
CONTINUOUS
 62
     7
 10
12.5
 20
84.849999999999966
 30
0.0
 40
2.25
  0
LINE
  5
CD1
  8
DATA
  6
CONTINUOUS
 62
     7
 10
-424.75
 20
90.0
 30
0.0
 11
-424.75
 21
75.0
 31
0.0
  0
LINE
  5
CD2
  8
DATA
  6
CONTINUOUS
 62
     7
 10
8.25
 20
90.0
 30
0.0
 11
8.25
 21
75.0
 31
0.0
  0
LINE
  5
CD3
  8
DATA
  6
CONTINUOUS
 62
     7
 10
6.75
 20
90.0
 30
0.0
 11
8.25
 21
90.0
 31
0.0
  0
LINE
  5
CD4
  8
DATA
  6
CONTINUOUS
 62
     7
 10
-424.75
 20
90.0
 30
0.0
 11
-423.24999999999989
 21
90.0
 31
0.0
  0
LINE
  5
CD5
  8
DATA
  6
CONTINUOUS
 62
     7
 10
-419.74999999999989
 20
81.5
 30
0.0
 11
-419.74999999999989
 21
204.1999999999999
 31
0.0
  0
LINE
  5
CD6
  8
DATA
  6
CONTINUOUS
 62
     7
 10
3.25
 20
81.5
 30
0.0
 11
3.25
 21
204.1999999999999
 31
0.0
  0
LINE
  5
CD7
  8
DATA
  6
CONTINUOUS
 62
     7
 10
5.0
 20
81.5
 30
0.0
 11
5.0
 21
205.86196000000001
 31
0.0
  0
LINE
  5
CD8
  8
DATA
  6
CONTINUOUS
 62
     7
 10
-421.49999999999989
 20
81.5
 30
0.0
 11
-421.49999999999989
 21
205.86196000000001
 31
0.0
  0
LINE
  5
CD9
  8
DATA
  6
CONTINUOUS
 62
     7
 10
-421.49999999999989
 20
205.9499999999999
 30
0.0
 11
5.0
 21
205.9499999999999
 31
0.0
  0
LINE
  5
CDA
  8
DATA
  6
CONTINUOUS
 62
     7
 10
-419.74999999999989
 20
204.1999999999999
 30
0.0
 11
3.25
 21
204.1999999999999
 31
0.0
  0
LINE
  5
CDB
  8
DATA
  6
CONTINUOUS
 62
     7
 10
6.75
 20
81.5
 30
0.0
 11
-423.24999999999989
 21
81.5
 31
0.0
  0
LINE
  5
CDC
  8
DATA
  6
CONTINUOUS
 62
     7
 10
-86.249999999999986
 20
87.84999999999998
 30
0.0
 11
-86.249999999999986
 21
197.84999999999999
 31
0.0
  0
LINE
  5
CDD
  8
DATA
  6
CONTINUOUS
 62
     7
 10
-206.25
 20
87.84999999999998
 30
0.0
 11
-206.25
 21
197.84999999999999
 31
0.0
  0
LINE
  5
CDE
  8
DATA
  6
CONTINUOUS
 62
     7
 10
-91.249999999999986
 20
82.850000000000009
 30
0.0
 11
-201.25
 21
82.850000000000009
 31
0.0
  0
LINE
  5
CDF
  8
DATA
  6
CONTINUOUS
 62
     7
 10
-91.249999999999986
 20
202.84999999999999
 30
0.0
 11
-201.25
 21
202.84999999999999
 31
0.0
  0
CIRCLE
  5
CE0
  8
DATA
  6
CONTINUOUS
 62
     7
 10
-146.25
 20
142.84999999999991
 30
0.0
 40
60.0
  0
CIRCLE
  5
CE1
  8
DATA
  6
CONTINUOUS
 62
     7
 10
-146.25
 20
142.84999999999991
 30
0.0
 40
29.5
  0
ARC
  5
CE2
  8
DATA
  6
CONTINUOUS
 62
     7
 10
-146.25
 20
142.84999999999991
 30
0.0
 40
63.499999054995257
 50
289.11172967645359
 51
340.88827032354618
  0
ARC
  5
CE3
  8
DATA
  6
CONTINUOUS
 62
     7
 10
-146.25
 20
142.84999999999991
 30
0.0
 40
63.499999020954313
 50
108.6495353343783
 51
161.03731552364849
  0
ARC
  5
CE4
  8
DATA
  6
CONTINUOUS
 62
     7
 10
-146.25
 20
142.84999999999991
 30
0.0
 40
63.499999054995293
 50
199.11172967645351
 51
250.88827032354641
  0
ARC
  5
CE5
  8
DATA
  6
CONTINUOUS
 62
     7
 10
-146.25
 20
142.84999999999991
 30
0.0
 40
63.499999054995257
 50
19.111729676453599
 51
70.888270323546422
  0
CIRCLE
  5
CE6
  8
DATA
  6
CONTINUOUS
 62
     7
 10
-146.25
 20
142.84999999999991
 30
0.0
 40
24.0
  0
CIRCLE
  5
CE7
  8
DATA
  6
CONTINUOUS
 62
     7
 10
-146.25
 20
142.84999999999991
 30
0.0
 40
35.59999800561792
  0
CIRCLE
  5
CE8
  8
DATA
  6
CONTINUOUS
 62
     7
 10
-146.25
 20
142.84999999999991
 30
0.0
 40
41.699996074879898
  0
CIRCLE
  5
CE9
  8
DATA
  6
CONTINUOUS
 62
     7
 10
-146.25
 20
142.84999999999991
 30
0.0
 40
47.799994144141912
  0
CIRCLE
  5
CEA
  8
DATA
  6
CONTINUOUS
 62
     7
 10
-146.25
 20
142.84999999999991
 30
0.0
 40
53.899992213403891
  0
CIRCLE
  5
CEB
  8
DATA
  6
CONTINUOUS
 62
     7
 10
-93.749999999999986
 20
90.349999999999994
 30
0.0
 40
4.0
  0
LINE
  5
CEC
  8
DATA
  6
CONTINUOUS
 62
     7
 10
-91.249999999999986
 20
90.349999999999994
 30
0.0
 11
-96.25
 21
90.349999999999994
 31
0.0
  0
LINE
  5
CED
  8
DATA
  6
CONTINUOUS
 62
     7
 10
-93.749999999999986
 20
92.849999999999994
 30
0.0
 11
-93.749999999999986
 21
87.84999999999998
 31
0.0
  0
CIRCLE
  5
CEE
  8
DATA
  6
CONTINUOUS
 62
     7
 10
-198.75
 20
90.349999999999994
 30
0.0
 40
4.0
  0
LINE
  5
CEF
  8
DATA
  6
CONTINUOUS
 62
     7
 10
-196.25
 20
90.349999999999994
 30
0.0
 11
-201.25
 21
90.349999999999994
 31
0.0
  0
LINE
  5
CF0
  8
DATA
  6
CONTINUOUS
 62
     7
 10
-198.75
 20
92.849999999999994
 30
0.0
 11
-198.75
 21
87.84999999999998
 31
0.0
  0
CIRCLE
  5
CF1
  8
DATA
  6
CONTINUOUS
 62
     7
 10
-198.75
 20
195.34999999999999
 30
0.0
 40
4.0
  0
LINE
  5
CF2
  8
DATA
  6
CONTINUOUS
 62
     7
 10
-196.25
 20
195.34999999999999
 30
0.0
 11
-201.25
 21
195.34999999999999
 31
0.0
  0
LINE
  5
CF3
  8
DATA
  6
CONTINUOUS
 62
     7
 10
-198.75
 20
197.84999999999999
 30
0.0
 11
-198.75
 21
192.84999999999991
 31
0.0
  0
CIRCLE
  5
CF4
  8
DATA
  6
CONTINUOUS
 62
     7
 10
-93.749999999999986
 20
195.34999999999999
 30
0.0
 40
4.0
  0
LINE
  5
CF5
  8
DATA
  6
CONTINUOUS
 62
     7
 10
-91.249999999999986
 20
195.34999999999999
 30
0.0
 11
-96.25
 21
195.34999999999999
 31
0.0
  0
LINE
  5
CF6
  8
DATA
  6
CONTINUOUS
 62
     7
 10
-93.749999999999986
 20
197.84999999999999
 30
0.0
 11
-93.749999999999986
 21
192.84999999999991
 31
0.0
  0
ARC
  5
CF7
  8
DATA
  6
CONTINUOUS
 62
     7
 10
-91.249999999999986
 20
87.84999999999998
 30
0.0
 40
4.999999999999992
 50
270.0
 51
0.0
  0
ARC
  5
CF8
  8
DATA
  6
CONTINUOUS
 62
     7
 10
-201.25
 20
87.84999999999998
 30
0.0
 40
5.0
 50
180.0
 51
270.0
  0
ARC
  5
CF9
  8
DATA
  6
CONTINUOUS
 62
     7
 10
-201.25
 20
197.84999999999999
 30
0.0
 40
5.0
 50
90.0
 51
180.0
  0
ARC
  5
CFA
  8
DATA
  6
CONTINUOUS
 62
     7
 10
-91.249999999999986
 20
197.84999999999999
 30
0.0
 40
5.0
 50
0.0
 51
90.0
  0
LINE
  5
CFB
  8
DATA
  6
CONTINUOUS
 62
     7
 10
-163.22055999999981
 20
159.82056
 30
0.0
 11
-191.15128000000001
 21
187.75128000000001
 31
0.0
  0
LINE
  5
CFC
  8
DATA
  6
CONTINUOUS
 62
     7
 10
-101.3487199999999
 20
97.948720000000051
 30
0.0
 11
-129.27943999999999
 21
125.8794399999999
 31
0.0
  0
LINE
  5
CFD
  8
DATA
  6
CONTINUOUS
 62
     7
 10
-170.25
 20
142.84999999999991
 30
0.0
 11
-206.25
 21
142.84999999999991
 31
0.0
  0
LINE
  5
CFE
  8
DATA
  6
CONTINUOUS
 62
     7
 10
-86.249999999999986
 20
142.84999999999991
 30
0.0
 11
-122.2499999999999
 21
142.84999999999991
 31
0.0
  0
LINE
  5
CFF
  8
DATA
  6
CONTINUOUS
 62
     7
 10
-163.22055999999981
 20
125.8794399999999
 30
0.0
 11
-191.15128000000001
 21
97.948720000000051
 31
0.0
  0
LINE
  5
D00
  8
DATA
  6
CONTINUOUS
 62
     7
 10
-101.3487199999999
 20
187.75128000000001
 30
0.0
 11
-129.27943999999999
 21
159.82056
 31
0.0
  0
LINE
  5
D01
  8
DATA
  6
CONTINUOUS
 62
     7
 10
-146.25
 20
166.84999999999991
 30
0.0
 11
-146.25
 21
202.84999999999999
 31
0.0
  0
LINE
  5
D02
  8
DATA
  6
CONTINUOUS
 62
     7
 10
-146.25
 20
82.850000000000009
 30
0.0
 11
-146.25
 21
118.8499999999998
 31
0.0
  0
LINE
  5
D03
  8
DATA
  6
CONTINUOUS
 62
     7
 10
2.5
 20
179.6999999999999
 30
0.0
 11
-85.499999999999986
 21
179.6999999999999
 31
0.0
  0
CIRCLE
  5
D04
  8
DATA
  6
CONTINUOUS
 62
     7
 10
-2.0
 20
96.200000000000003
 30
0.0
 40
3.5
  0
CIRCLE
  5
D05
  8
DATA
  6
CONTINUOUS
 62
     7
 10
-80.999999999999986
 20
96.200000000000003
 30
0.0
 40
3.5
  0
LINE
  5
D06
  8
DATA
  6
CONTINUOUS
 62
     7
 10
-85.499999999999986
 20
91.699999999999989
 30
0.0
 11
-85.499999999999986
 21
179.6999999999999
 31
0.0
  0
LINE
  5
D07
  8
DATA
  6
CONTINUOUS
 62
     7
 10
2.5
 20
179.6999999999999
 30
0.0
 11
2.5
 21
91.699999999999989
 31
0.0
  0
LINE
  5
D08
  8
DATA
  6
CONTINUOUS
 62
     7
 10
2.5
 20
91.699999999999989
 30
0.0
 11
-85.499999999999986
 21
91.699999999999989
 31
0.0
  0
CIRCLE
  5
D09
  8
DATA
  6
CONTINUOUS
 62
     7
 10
-80.999999999999986
 20
175.6999999999999
 30
0.0
 40
3.5
  0
CIRCLE
  5
D0A
  8
DATA
  6
CONTINUOUS
 62
     7
 10
-2.0
 20
175.6999999999999
 30
0.0
 40
3.5
  0
CIRCLE
  5
D0B
  8
DATA
  6
CONTINUOUS
 62
     7
 10
-14.0
 20
110.6999999999999
 30
0.0
 40
3.5
  0
CIRCLE
  5
D0C
  8
DATA
  6
CONTINUOUS
 62
     7
 10
-14.0
 20
110.6999999999999
 30
0.0
 40
1.5
  0
LINE
  5
D0D
  8
DATA
  6
CONTINUOUS
 62
     7
 10
-12.983700000000001
 20
110.2789999999999
 30
0.0
 11
-12.4999
 21
110.6999999999999
 31
0.0
  0
LINE
  5
D0E
  8
DATA
  6
CONTINUOUS
 62
     7
 10
-12.983700000000001
 20
111.121
 30
0.0
 11
-12.4999
 21
110.6999999999999
 31
0.0
  0
LINE
  5
D0F
  8
DATA
  6
CONTINUOUS
 62
     7
 10
-14.0
 20
109.2
 30
0.0
 11
-13.579000000000001
 21
109.68379999999991
 31
0.0
  0
LINE
  5
D10
  8
DATA
  6
CONTINUOUS
 62
     7
 10
-13.9999
 20
109.2
 30
0.0
 11
-14.4209
 21
109.68379999999991
 31
0.0
  0
LINE
  5
D11
  8
DATA
  6
CONTINUOUS
 62
     7
 10
-12.939299999999999
 20
109.63930000000001
 30
0.0
 11
-12.983700000000001
 21
110.2791
 31
0.0
  0
LINE
  5
D12
  8
DATA
  6
CONTINUOUS
 62
     7
 10
-12.939199999999991
 20
109.63930000000001
 30
0.0
 11
-13.579000000000001
 21
109.6837
 31
0.0
  0
LINE
  5
D13
  8
DATA
  6
CONTINUOUS
 62
     7
 10
-15.060600000000001
 20
109.63930000000001
 30
0.0
 11
-15.016199999999991
 21
110.2791
 31
0.0
  0
LINE
  5
D14
  8
DATA
  6
CONTINUOUS
 62
     7
 10
-15.06069999999999
 20
109.63930000000001
 30
0.0
 11
-14.4209
 21
109.6837
 31
0.0
  0
LINE
  5
D15
  8
DATA
  6
CONTINUOUS
 62
     7
 10
-14.0
 20
112.2
 30
0.0
 11
-13.579000000000001
 21
111.7161999999999
 31
0.0
  0
LINE
  5
D16
  8
DATA
  6
CONTINUOUS
 62
     7
 10
-13.9999
 20
112.2
 30
0.0
 11
-14.4209
 21
111.7161999999999
 31
0.0
  0
LINE
  5
D17
  8
DATA
  6
CONTINUOUS
 62
     7
 10
-12.939299999999999
 20
111.7607
 30
0.0
 11
-12.983700000000001
 21
111.12090000000001
 31
0.0
  0
LINE
  5
D18
  8
DATA
  6
CONTINUOUS
 62
     7
 10
-12.939199999999991
 20
111.7607
 30
0.0
 11
-13.579000000000001
 21
111.7163
 31
0.0
  0
LINE
  5
D19
  8
DATA
  6
CONTINUOUS
 62
     7
 10
-15.060600000000001
 20
111.7607
 30
0.0
 11
-15.016199999999991
 21
111.12090000000001
 31
0.0
  0
LINE
  5
D1A
  8
DATA
  6
CONTINUOUS
 62
     7
 10
-15.06069999999999
 20
111.7607
 30
0.0
 11
-14.4209
 21
111.7163
 31
0.0
  0
LINE
  5
D1B
  8
DATA
  6
CONTINUOUS
 62
     7
 10
-15.016199999999991
 20
110.2789999999999
 30
0.0
 11
-15.5
 21
110.6999999999999
 31
0.0
  0
LINE
  5
D1C
  8
DATA
  6
CONTINUOUS
 62
     7
 10
-15.016199999999991
 20
111.121
 30
0.0
 11
-15.5
 21
110.6999999999999
 31
0.0
  0
CIRCLE
  5
D1D
  8
DATA
  6
CONTINUOUS
 62
     7
 10
-70.499999999999986
 20
110.6999999999999
 30
0.0
 40
3.5
  0
CIRCLE
  5
D1E
  8
DATA
  6
CONTINUOUS
 62
     7
 10
-70.499999999999986
 20
110.6999999999999
 30
0.0
 40
1.5
  0
LINE
  5
D1F
  8
DATA
  6
CONTINUOUS
 62
     7
 10
-69.483700000000013
 20
110.2789999999999
 30
0.0
 11
-68.999900000000011
 21
110.6999999999999
 31
0.0
  0
LINE
  5
D20
  8
DATA
  6
CONTINUOUS
 62
     7
 10
-69.483700000000013
 20
111.121
 30
0.0
 11
-68.999900000000011
 21
110.6999999999999
 31
0.0
  0
LINE
  5
D21
  8
DATA
  6
CONTINUOUS
 62
     7
 10
-70.499999999999986
 20
109.2
 30
0.0
 11
-70.078999999999994
 21
109.68379999999991
 31
0.0
  0
LINE
  5
D22
  8
DATA
  6
CONTINUOUS
 62
     7
 10
-70.499900000000025
 20
109.2
 30
0.0
 11
-70.920900000000003
 21
109.68379999999991
 31
0.0
  0
LINE
  5
D23
  8
DATA
  6
CONTINUOUS
 62
     7
 10
-69.439299999999989
 20
109.63930000000001
 30
0.0
 11
-69.483700000000013
 21
110.2791
 31
0.0
  0
LINE
  5
D24
  8
DATA
  6
CONTINUOUS
 62
     7
 10
-69.439199999999985
 20
109.63930000000001
 30
0.0
 11
-70.078999999999994
 21
109.6837
 31
0.0
  0
LINE
  5
D25
  8
DATA
  6
CONTINUOUS
 62
     7
 10
-71.560600000000022
 20
109.63930000000001
 30
0.0
 11
-71.516200000000012
 21
110.2791
 31
0.0
  0
LINE
  5
D26
  8
DATA
  6
CONTINUOUS
 62
     7
 10
-71.560700000000026
 20
109.63930000000001
 30
0.0
 11
-70.920900000000003
 21
109.6837
 31
0.0
  0
LINE
  5
D27
  8
DATA
  6
CONTINUOUS
 62
     7
 10
-70.499999999999986
 20
112.2
 30
0.0
 11
-70.078999999999994
 21
111.7161999999999
 31
0.0
  0
LINE
  5
D28
  8
DATA
  6
CONTINUOUS
 62
     7
 10
-70.499900000000025
 20
112.2
 30
0.0
 11
-70.920900000000003
 21
111.7161999999999
 31
0.0
  0
LINE
  5
D29
  8
DATA
  6
CONTINUOUS
 62
     7
 10
-69.439299999999989
 20
111.7607
 30
0.0
 11
-69.483700000000013
 21
111.12090000000001
 31
0.0
  0
LINE
  5
D2A
  8
DATA
  6
CONTINUOUS
 62
     7
 10
-69.439199999999985
 20
111.7607
 30
0.0
 11
-70.078999999999994
 21
111.7163
 31
0.0
  0
LINE
  5
D2B
  8
DATA
  6
CONTINUOUS
 62
     7
 10
-71.560600000000022
 20
111.7607
 30
0.0
 11
-71.516200000000012
 21
111.12090000000001
 31
0.0
  0
LINE
  5
D2C
  8
DATA
  6
CONTINUOUS
 62
     7
 10
-71.560700000000026
 20
111.7607
 30
0.0
 11
-70.920900000000003
 21
111.7163
 31
0.0
  0
LINE
  5
D2D
  8
DATA
  6
CONTINUOUS
 62
     7
 10
-71.516200000000012
 20
110.2789999999999
 30
0.0
 11
-71.999999999999986
 21
110.6999999999999
 31
0.0
  0
LINE
  5
D2E
  8
DATA
  6
CONTINUOUS
 62
     7
 10
-71.516200000000012
 20
111.121
 30
0.0
 11
-71.999999999999986
 21
110.6999999999999
 31
0.0
  0
LINE
  5
D2F
  8
DATA
  6
CONTINUOUS
 62
     7
 10
-17.75
 20
118.2
 30
0.0
 11
-17.75
 21
103.2
 31
0.0
  0
LINE
  5
D30
  8
DATA
  6
CONTINUOUS
 62
     7
 10
-66.749999999999986
 20
118.2
 30
0.0
 11
-66.749999999999986
 21
103.2
 31
0.0
  0
LINE
  5
D31
  8
DATA
  6
CONTINUOUS
 62
     7
 10
-17.75
 20
118.2
 30
0.0
 11
-66.749999999999986
 21
118.2
 31
0.0
  0
LINE
  5
D32
  8
DATA
  6
CONTINUOUS
 62
     7
 10
-17.75
 20
103.2
 30
0.0
 11
-66.749999999999986
 21
103.2
 31
0.0
  0
LINE
  5
D33
  8
DATA
  6
CONTINUOUS
 62
     7
 10
-18.949899999999989
 20
118.2
 30
0.0
 11
-18.949899999999989
 21
103.2
 31
0.0
  0
LINE
  5
D34
  8
DATA
  6
CONTINUOUS
 62
     7
 10
-65.549999999999983
 20
118.2
 30
0.0
 11
-65.549999999999983
 21
103.2
 31
0.0
  0
LINE
  5
D35
  8
DATA
  6
CONTINUOUS
 62
     7
 10
-23.0
 20
128.71899999999999
 30
0.0
 11
-18.0
 21
128.71899999999999
 31
0.0
  0
ARC
  5
D36
  8
DATA
  6
CONTINUOUS
 62
     7
 10
-20.5
 20
140.1999999999999
 30
0.0
 40
3.7499920906583242
 50
198.85337036233921
 51
341.14662963766062
  0
ARC
  5
D37
  8
DATA
  6
CONTINUOUS
 62
     7
 10
-20.5
 20
140.1999999999999
 30
0.0
 40
9.7500319635373476
 50
281.83696478895803
 51
258.16303521104192
  0
ARC
  5
D38
  8
DATA
  6
CONTINUOUS
 62
     7
 10
-20.5
 20
140.1999999999999
 30
0.0
 40
11.750036638240729
 50
282.28445495365162
 51
257.71554504634832
  0
ARC
  5
D39
  8
DATA
  6
CONTINUOUS
 62
     7
 10
-20.5
 20
140.1999999999999
 30
0.0
 40
7.9999936499974789
 50
318.5817678775847
 51
311.41823212241542
  0
ARC
  5
D3A
  8
DATA
  6
CONTINUOUS
 62
     7
 10
-20.5
 20
140.1999999999999
 30
0.0
 40
3.7499920906583242
 50
18.853370362339319
 51
71.146629637660709
  0
POLYLINE
  5
D3B
  8
DATA
  6
CONTINUOUS
 62
     7
 66
     1
 10
0.0
 20
0.0
 30
0.0
 70
   128
  0
VERTEX
  5
10AC
  8
DATA
  6
CONTINUOUS
 62
     7
 10
-25.75
 20
123.95
 30
0.0
  0
VERTEX
  5
10AD
  8
DATA
  6
CONTINUOUS
 62
     7
 10
-25.75
 20
123.9499926758717
 30
0.0
 42
0.2465635496811431
  0
VERTEX
  5
10AE
  8
DATA
  6
CONTINUOUS
 62
     7
 10
-25.516308812484581
 20
123.5049060786158
 30
0.0
  0
VERTEX
  5
10AF
  8
DATA
  6
CONTINUOUS
 62
     7
 10
-25.516300000000001
 20
123.50490000000001
 30
0.0
  0
VERTEX
  5
10B0
  8
DATA
  6
CONTINUOUS
 62
     7
 10
-25.516300000000001
 20
123.50490000000001
 30
0.0
  0
VERTEX
  5
10B1
  8
DATA
  6
CONTINUOUS
 62
     7
 10
-25.516300000000001
 20
123.50490000000001
 30
0.0
 42
0.0815615956272434
  0
VERTEX
  5
10B2
  8
DATA
  6
CONTINUOUS
 62
     7
 10
-24.212299999999988
 20
122.88930000000001
 30
0.0
  0
VERTEX
  5
10B3
  8
DATA
  6
CONTINUOUS
 62
     7
 10
-24.212299999999988
 20
122.88930000000001
 30
0.0
  0
VERTEX
  5
10B4
  8
DATA
  6
CONTINUOUS
 62
     7
 10
-24.212299999999988
 20
122.88930000000001
 30
0.0
 42
0.0401472994714028
  0
VERTEX
  5
10B5
  8
DATA
  6
CONTINUOUS
 62
     7
 10
-22.6568
 20
122.5772
 30
0.0
  0
VERTEX
  5
10B6
  8
DATA
  6
CONTINUOUS
 62
     7
 10
-22.6568
 20
122.5772
 30
0.0
  0
VERTEX
  5
10B7
  8
DATA
  6
CONTINUOUS
 62
     7
 10
-22.6568
 20
122.5772
 30
0.0
 42
0.029465203259515
  0
VERTEX
  5
10B8
  8
DATA
  6
CONTINUOUS
 62
     7
 10
-20.5
 20
122.45
 30
0.0
  0
VERTEX
  5
10B9
  8
DATA
  6
CONTINUOUS
 62
     7
 10
-20.5
 20
122.45
 30
0.0
  0
VERTEX
  5
10BA
  8
DATA
  6
CONTINUOUS
 62
     7
 10
-20.5
 20
122.45
 30
0.0
 42
0.0294625336607083
  0
VERTEX
  5
10BB
  8
DATA
  6
CONTINUOUS
 62
     7
 10
-18.34320000000001
 20
122.5772
 30
0.0
  0
VERTEX
  5
10BC
  8
DATA
  6
CONTINUOUS
 62
     7
 10
-18.34320000000001
 20
122.5772
 30
0.0
  0
VERTEX
  5
10BD
  8
DATA
  6
CONTINUOUS
 62
     7
 10
-18.34320000000001
 20
122.5772
 30
0.0
 42
0.0401473204583584
  0
VERTEX
  5
10BE
  8
DATA
  6
CONTINUOUS
 62
     7
 10
-16.787700000000001
 20
122.88930000000001
 30
0.0
  0
VERTEX
  5
10BF
  8
DATA
  6
CONTINUOUS
 62
     7
 10
-16.787700000000001
 20
122.88930000000001
 30
0.0
  0
VERTEX
  5
10C0
  8
DATA
  6
CONTINUOUS
 62
     7
 10
-16.787700000000001
 20
122.88930000000001
 30
0.0
 42
0.0815737903264017
  0
VERTEX
  5
10C1
  8
DATA
  6
CONTINUOUS
 62
     7
 10
-15.483700000000001
 20
123.50490000000001
 30
0.0
  0
VERTEX
  5
10C2
  8
DATA
  6
CONTINUOUS
 62
     7
 10
-15.483700000000001
 20
123.50490000000001
 30
0.0
  0
VERTEX
  5
10C3
  8
DATA
  6
CONTINUOUS
 62
     7
 10
-15.483691187515401
 20
123.5049060786158
 30
0.0
 42
0.2465635496811416
  0
VERTEX
  5
10C4
  8
DATA
  6
CONTINUOUS
 62
     7
 10
-15.25
 20
123.9499926758717
 30
0.0
  0
VERTEX
  5
10C5
  8
DATA
  6
CONTINUOUS
 62
     7
 10
-15.25
 20
123.95
 30
0.0
  0
VERTEX
  5
10C6
  8
DATA
  6
CONTINUOUS
 62
     7
 10
-15.25
 20
123.95
 30
0.0
  0
SEQEND
  5
10C7
  8
DATA
  6
CONTINUOUS
 62
     7
  0
ARC
  5
D58
  8
DATA
  6
CONTINUOUS
 62
     7
 10
-20.5
 20
140.1999999999999
 30
0.0
 40
10.25001507315964
 50
281.25183096682991
 51
289.96608112443641
  0
LINE
  5
D59
  8
DATA
  6
CONTINUOUS
 62
     7
 10
-17.0
 20
130.566
 30
0.0
 11
-17.0
 21
128.9833999999999
 31
0.0
  0
LINE
  5
D5A
  8
DATA
  6
CONTINUOUS
 62
     7
 10
-18.5
 20
130.65739999999991
 30
0.0
 11
-18.5
 21
130.14699999999991
 31
0.0
  0
ARC
  5
D5B
  8
DATA
  6
CONTINUOUS
 62
     7
 10
-17.25
 20
125.95
 30
0.0
 40
2.0
 50
0.0
 51
90.0
  0
LINE
  5
D5C
  8
DATA
  6
CONTINUOUS
 62
     7
 10
-15.25
 20
125.95
 30
0.0
 11
-15.25
 21
123.95
 31
0.0
  0
ARC
  5
D5D
  8
DATA
  6
CONTINUOUS
 62
     7
 10
-14.843099999999991
 20
134.54310000000001
 30
0.0
 40
0.4999566481206175
 50
223.2088238299508
 51
46.791176170048132
  0
ARC
  5
D5E
  8
DATA
  6
CONTINUOUS
 62
     7
 10
-16.25
 20
140.1999999999999
 30
0.0
 40
1.4000502419556231
 50
239.9444654662054
 51
120.0555345337944
  0
LINE
  5
D5F
  8
DATA
  6
CONTINUOUS
 62
     7
 10
-11.5
 20
127.2
 30
0.0
 11
-11.5
 21
130.1999999999999
 31
0.0
  0
LINE
  5
D60
  8
DATA
  6
CONTINUOUS
 62
     7
 10
-10.0
 20
128.6999999999999
 30
0.0
 11
-13.0
 21
128.6999999999999
 31
0.0
  0
CIRCLE
  5
D61
  8
DATA
  6
CONTINUOUS
 62
     7
 10
-11.5
 20
128.6999999999999
 30
0.0
 40
2.5
  0
LINE
  5
D62
  8
DATA
  6
CONTINUOUS
 62
     7
 10
-17.25
 20
127.95
 30
0.0
 11
-18.0
 21
127.95
 31
0.0
  0
LINE
  5
D63
  8
DATA
  6
CONTINUOUS
 62
     7
 10
-18.0
 20
128.71899999999999
 30
0.0
 11
-18.0
 21
127.95
 31
0.0
  0
LINE
  5
D64
  8
DATA
  6
CONTINUOUS
 62
     7
 10
-23.0
 20
128.71899999999999
 30
0.0
 11
-23.0
 21
127.95
 31
0.0
  0
ARC
  5
D65
  8
DATA
  6
CONTINUOUS
 62
     7
 10
-20.5
 20
140.1999999999999
 30
0.0
 40
10.24997703460842
 50
250.0338950650484
 51
258.74818022920681
  0
LINE
  5
D66
  8
DATA
  6
CONTINUOUS
 62
     7
 10
-24.0
 20
130.566
 30
0.0
 11
-24.0
 21
128.9833999999999
 31
0.0
  0
LINE
  5
D67
  8
DATA
  6
CONTINUOUS
 62
     7
 10
-22.5
 20
130.65739999999991
 30
0.0
 11
-22.5
 21
130.14699999999991
 31
0.0
  0
ARC
  5
D68
  8
DATA
  6
CONTINUOUS
 62
     7
 10
-23.75
 20
125.95
 30
0.0
 40
2.0
 50
90.0
 51
180.0
  0
LINE
  5
D69
  8
DATA
  6
CONTINUOUS
 62
     7
 10
-25.75
 20
125.95
 30
0.0
 11
-25.75
 21
123.95
 31
0.0
  0
ARC
  5
D6A
  8
DATA
  6
CONTINUOUS
 62
     7
 10
-24.75
 20
140.1999999999999
 30
0.0
 40
1.4000502419556231
 50
59.944465466205443
 51
300.05553453379451
  0
LINE
  5
D6B
  8
DATA
  6
CONTINUOUS
 62
     7
 10
-23.75
 20
127.95
 30
0.0
 11
-23.0
 21
127.95
 31
0.0
  0
ARC
  5
D6C
  8
DATA
  6
CONTINUOUS
 62
     7
 10
-20.5
 20
144.44999999999979
 30
0.0
 40
1.40005024195562
 50
329.94446546620549
 51
210.0555345337946
  0
LINE
  5
D6D
  8
DATA
  6
CONTINUOUS
 62
     7
 10
-28.0
 20
151.6999999999999
 30
0.0
 11
-31.000000000000011
 21
151.6999999999999
 31
0.0
  0
ARC
  5
D6E
  8
DATA
  6
CONTINUOUS
 62
     7
 10
-20.5
 20
140.1999999999999
 30
0.0
 40
3.7499920906583242
 50
108.85337036233921
 51
161.14662963766051
  0
LINE
  5
D6F
  8
DATA
  6
CONTINUOUS
 62
     7
 10
-29.500000000000011
 20
150.1999999999999
 30
0.0
 11
-29.500000000000011
 21
153.19999999999999
 31
0.0
  0
CIRCLE
  5
D70
  8
DATA
  6
CONTINUOUS
 62
     7
 10
-29.500000000000011
 20
151.6999999999999
 30
0.0
 40
2.5000000000000142
  0
LINE
  5
D71
  8
DATA
  6
CONTINUOUS
 62
     7
 10
-62.999999999999993
 20
128.71899999999999
 30
0.0
 11
-58.000000000000021
 21
128.71899999999999
 31
0.0
  0
ARC
  5
D72
  8
DATA
  6
CONTINUOUS
 62
     7
 10
-60.500000000000021
 20
140.1999999999999
 30
0.0
 40
3.7499920906582962
 50
198.8533703623394
 51
341.14662963766062
  0
ARC
  5
D73
  8
DATA
  6
CONTINUOUS
 62
     7
 10
-60.500000000000021
 20
140.1999999999999
 30
0.0
 40
9.7500319635373476
 50
281.83696478895803
 51
258.16303521104192
  0
ARC
  5
D74
  8
DATA
  6
CONTINUOUS
 62
     7
 10
-60.500000000000021
 20
140.1999999999999
 30
0.0
 40
11.750036638240729
 50
282.28445495365162
 51
257.7155450463485
  0
ARC
  5
D75
  8
DATA
  6
CONTINUOUS
 62
     7
 10
-60.500000000000021
 20
140.1999999999999
 30
0.0
 40
7.9999936499974789
 50
318.5817678775847
 51
311.41823212241547
  0
ARC
  5
D76
  8
DATA
  6
CONTINUOUS
 62
     7
 10
-60.500000000000021
 20
140.1999999999999
 30
0.0
 40
3.7499920906583242
 50
18.853370362339319
 51
71.14662963766051
  0
POLYLINE
  5
D77
  8
DATA
  6
CONTINUOUS
 62
     7
 66
     1
 10
0.0
 20
0.0
 30
0.0
 70
   128
  0
VERTEX
  5
10C8
  8
DATA
  6
CONTINUOUS
 62
     7
 10
-65.749999999999986
 20
123.95
 30
0.0
  0
VERTEX
  5
10C9
  8
DATA
  6
CONTINUOUS
 62
     7
 10
-65.749999999999986
 20
123.9499926758717
 30
0.0
 42
0.2465635496811373
  0
VERTEX
  5
10CA
  8
DATA
  6
CONTINUOUS
 62
     7
 10
-65.516308812484581
 20
123.5049060786158
 30
0.0
  0
VERTEX
  5
10CB
  8
DATA
  6
CONTINUOUS
 62
     7
 10
-65.516299999999987
 20
123.50490000000001
 30
0.0
  0
VERTEX
  5
10CC
  8
DATA
  6
CONTINUOUS
 62
     7
 10
-65.516299999999987
 20
123.50490000000001
 30
0.0
  0
VERTEX
  5
10CD
  8
DATA
  6
CONTINUOUS
 62
     7
 10
-65.516299999999987
 20
123.50490000000001
 30
0.0
 42
0.0815615956272499
  0
VERTEX
  5
10CE
  8
DATA
  6
CONTINUOUS
 62
     7
 10
-64.212300000000013
 20
122.88930000000001
 30
0.0
  0
VERTEX
  5
10CF
  8
DATA
  6
CONTINUOUS
 62
     7
 10
-64.212300000000013
 20
122.88930000000001
 30
0.0
  0
VERTEX
  5
10D0
  8
DATA
  6
CONTINUOUS
 62
     7
 10
-64.212300000000013
 20
122.88930000000001
 30
0.0
 42
0.0401472994714131
  0
VERTEX
  5
10D1
  8
DATA
  6
CONTINUOUS
 62
     7
 10
-62.65679999999999
 20
122.5772
 30
0.0
  0
VERTEX
  5
10D2
  8
DATA
  6
CONTINUOUS
 62
     7
 10
-62.65679999999999
 20
122.5772
 30
0.0
  0
VERTEX
  5
10D3
  8
DATA
  6
CONTINUOUS
 62
     7
 10
-62.65679999999999
 20
122.5772
 30
0.0
 42
0.0294652032595126
  0
VERTEX
  5
10D4
  8
DATA
  6
CONTINUOUS
 62
     7
 10
-60.500000000000021
 20
122.45
 30
0.0
  0
VERTEX
  5
10D5
  8
DATA
  6
CONTINUOUS
 62
     7
 10
-60.500000000000021
 20
122.45
 30
0.0
  0
VERTEX
  5
10D6
  8
DATA
  6
CONTINUOUS
 62
     7
 10
-60.500000000000021
 20
122.45
 30
0.0
 42
0.0294625336607057
  0
VERTEX
  5
10D7
  8
DATA
  6
CONTINUOUS
 62
     7
 10
-58.34320000000001
 20
122.5772
 30
0.0
  0
VERTEX
  5
10D8
  8
DATA
  6
CONTINUOUS
 62
     7
 10
-58.34320000000001
 20
122.5772
 30
0.0
  0
VERTEX
  5
10D9
  8
DATA
  6
CONTINUOUS
 62
     7
 10
-58.34320000000001
 20
122.5772
 30
0.0
 42
0.0401473204583534
  0
VERTEX
  5
10DA
  8
DATA
  6
CONTINUOUS
 62
     7
 10
-56.787700000000001
 20
122.88930000000001
 30
0.0
  0
VERTEX
  5
10DB
  8
DATA
  6
CONTINUOUS
 62
     7
 10
-56.787700000000001
 20
122.88930000000001
 30
0.0
  0
VERTEX
  5
10DC
  8
DATA
  6
CONTINUOUS
 62
     7
 10
-56.787700000000001
 20
122.88930000000001
 30
0.0
 42
0.081573790326415
  0
VERTEX
  5
10DD
  8
DATA
  6
CONTINUOUS
 62
     7
 10
-55.483700000000013
 20
123.50490000000001
 30
0.0
  0
VERTEX
  5
10DE
  8
DATA
  6
CONTINUOUS
 62
     7
 10
-55.483700000000013
 20
123.50490000000001
 30
0.0
  0
VERTEX
  5
10DF
  8
DATA
  6
CONTINUOUS
 62
     7
 10
-55.483691187515419
 20
123.5049060786158
 30
0.0
 42
0.2465635496811549
  0
VERTEX
  5
10E0
  8
DATA
  6
CONTINUOUS
 62
     7
 10
-55.250000000000021
 20
123.9499926758717
 30
0.0
  0
VERTEX
  5
10E1
  8
DATA
  6
CONTINUOUS
 62
     7
 10
-55.250000000000021
 20
123.95
 30
0.0
  0
VERTEX
  5
10E2
  8
DATA
  6
CONTINUOUS
 62
     7
 10
-55.250000000000021
 20
123.95
 30
0.0
  0
SEQEND
  5
10E3
  8
DATA
  6
CONTINUOUS
 62
     7
  0
ARC
  5
D94
  8
DATA
  6
CONTINUOUS
 62
     7
 10
-60.500000000000021
 20
140.1999999999999
 30
0.0
 40
10.25001507315964
 50
281.25183096682991
 51
289.96608112443641
  0
LINE
  5
D95
  8
DATA
  6
CONTINUOUS
 62
     7
 10
-57.000000000000021
 20
130.566
 30
0.0
 11
-57.000000000000021
 21
128.9833999999999
 31
0.0
  0
LINE
  5
D96
  8
DATA
  6
CONTINUOUS
 62
     7
 10
-58.500000000000021
 20
130.65739999999991
 30
0.0
 11
-58.500000000000021
 21
130.14699999999991
 31
0.0
  0
ARC
  5
D97
  8
DATA
  6
CONTINUOUS
 62
     7
 10
-57.250000000000021
 20
125.95
 30
0.0
 40
2.0
 50
0.0
 51
90.0
  0
LINE
  5
D98
  8
DATA
  6
CONTINUOUS
 62
     7
 10
-55.250000000000021
 20
125.95
 30
0.0
 11
-55.250000000000021
 21
123.95
 31
0.0
  0
ARC
  5
D99
  8
DATA
  6
CONTINUOUS
 62
     7
 10
-54.8431
 20
134.54310000000001
 30
0.0
 40
0.4999566481206072
 50
223.20882382995191
 51
46.791176170049219
  0
ARC
  5
D9A
  8
DATA
  6
CONTINUOUS
 62
     7
 10
-56.250000000000021
 20
140.1999999999999
 30
0.0
 40
1.4000502419556231
 50
239.9444654662054
 51
120.0555345337944
  0
LINE
  5
D9B
  8
DATA
  6
CONTINUOUS
 62
     7
 10
-51.500000000000021
 20
127.2
 30
0.0
 11
-51.500000000000021
 21
130.1999999999999
 31
0.0
  0
LINE
  5
D9C
  8
DATA
  6
CONTINUOUS
 62
     7
 10
-50.000000000000021
 20
128.6999999999999
 30
0.0
 11
-53.000000000000021
 21
128.6999999999999
 31
0.0
  0
CIRCLE
  5
D9D
  8
DATA
  6
CONTINUOUS
 62
     7
 10
-51.500000000000021
 20
128.6999999999999
 30
0.0
 40
2.5
  0
LINE
  5
D9E
  8
DATA
  6
CONTINUOUS
 62
     7
 10
-57.250000000000021
 20
127.95
 30
0.0
 11
-58.000000000000021
 21
127.95
 31
0.0
  0
LINE
  5
D9F
  8
DATA
  6
CONTINUOUS
 62
     7
 10
-58.000000000000021
 20
128.71899999999999
 30
0.0
 11
-58.000000000000021
 21
127.95
 31
0.0
  0
LINE
  5
DA0
  8
DATA
  6
CONTINUOUS
 62
     7
 10
-62.999999999999993
 20
128.71899999999999
 30
0.0
 11
-62.999999999999993
 21
127.95
 31
0.0
  0
ARC
  5
DA1
  8
DATA
  6
CONTINUOUS
 62
     7
 10
-60.500000000000021
 20
140.1999999999999
 30
0.0
 40
10.24997703460839
 50
250.0338950650484
 51
258.74818022920681
  0
LINE
  5
DA2
  8
DATA
  6
CONTINUOUS
 62
     7
 10
-63.999999999999993
 20
130.566
 30
0.0
 11
-63.999999999999993
 21
128.9833999999999
 31
0.0
  0
LINE
  5
DA3
  8
DATA
  6
CONTINUOUS
 62
     7
 10
-62.5
 20
130.65739999999991
 30
0.0
 11
-62.5
 21
130.14699999999991
 31
0.0
  0
ARC
  5
DA4
  8
DATA
  6
CONTINUOUS
 62
     7
 10
-63.75
 20
125.95
 30
0.0
 40
2.0
 50
90.0
 51
180.0
  0
LINE
  5
DA5
  8
DATA
  6
CONTINUOUS
 62
     7
 10
-65.749999999999986
 20
125.95
 30
0.0
 11
-65.749999999999986
 21
123.95
 31
0.0
  0
ARC
  5
DA6
  8
DATA
  6
CONTINUOUS
 62
     7
 10
-64.749999999999986
 20
140.1999999999999
 30
0.0
 40
1.4000502419556231
 50
59.944465466205443
 51
300.05553453379451
  0
LINE
  5
DA7
  8
DATA
  6
CONTINUOUS
 62
     7
 10
-63.75
 20
127.95
 30
0.0
 11
-62.999999999999993
 21
127.95
 31
0.0
  0
ARC
  5
DA8
  8
DATA
  6
CONTINUOUS
 62
     7
 10
-60.500000000000021
 20
144.44999999999979
 30
0.0
 40
1.4000502419556311
 50
329.9444654662056
 51
210.05553453379471
  0
LINE
  5
DA9
  8
DATA
  6
CONTINUOUS
 62
     7
 10
-67.999999999999986
 20
151.6999999999999
 30
0.0
 11
-70.999999999999986
 21
151.6999999999999
 31
0.0
  0
ARC
  5
DAA
  8
DATA
  6
CONTINUOUS
 62
     7
 10
-60.500000000000021
 20
140.1999999999999
 30
0.0
 40
3.7499920906583188
 50
108.85337036233901
 51
161.14662963766051
  0
LINE
  5
DAB
  8
DATA
  6
CONTINUOUS
 62
     7
 10
-69.499999999999986
 20
150.1999999999999
 30
0.0
 11
-69.499999999999986
 21
153.19999999999999
 31
0.0
  0
CIRCLE
  5
DAC
  8
DATA
  6
CONTINUOUS
 62
     7
 10
-69.499999999999986
 20
151.6999999999999
 30
0.0
 40
2.5
  0
TEXT
  5
DAD
  8
DATA
 62
     7
 10
-77.249999999999986
 20
155.1999999999999
 30
0.0
 40
9.3023199999999981
  1
1
 50
180.0
 41
0.75
  0
TEXT
  5
DAE
  8
DATA
 62
     7
 10
-0.7342000000000013
 20
144.1999999999999
 30
0.0
 40
9.3023199999999981
  1
H
 50
180.0
 41
0.75
  0
TEXT
  5
DAF
  8
DATA
 62
     7
 10
-0.7342000000000013
 20
133.19999999999979
 30
0.0
 40
9.3023199999999981
  1
C
 50
180.0
 41
0.75
  0
TEXT
  5
DB0
  8
DATA
 62
     7
 10
-77.249999999999986
 20
144.1999999999999
 30
0.0
 40
9.3023199999999981
  1
H
 50
180.0
 41
0.75
  0
TEXT
  5
DB1
  8
DATA
 62
     7
 10
-77.249999999999986
 20
133.19999999999979
 30
0.0
 40
9.3023199999999981
  1
C
 50
180.0
 41
0.75
  0
TEXT
  5
DB2
  8
DATA
 62
     7
 10
-0.7342000000000013
 20
155.1999999999999
 30
0.0
 40
9.3023199999999981
  1
2
 50
180.0
 41
0.75
  0
TEXT
  5
DB3
  8
DATA
 62
     7
 10
-22.054200000000009
 20
100.2
 30
0.0
 40
4.6511199999999979
  1
+
 50
180.0
 41
0.75
  0
TEXT
  5
DB4
  8
DATA
 62
     7
 10
-31.554199999999991
 20
100.2
 30
0.0
 40
4.6511199999999979
  1
-
 50
180.0
 41
0.75
  0
TEXT
  5
DB5
  8
DATA
 62
     7
 10
-50.554200000000002
 20
100.2
 30
0.0
 40
4.6511199999999979
  1
-
 50
180.0
 41
0.75
  0
TEXT
  5
DB6
  8
DATA
 62
     7
 10
-60.054200000000002
 20
100.2
 30
0.0
 40
4.6511199999999979
  1
+
 50
180.0
 41
0.75
  0
LINE
  5
DB7
  8
DATA
  6
CONTINUOUS
 62
     7
 10
-41.350000000000001
 20
100.2
 30
0.0
 11
-43.149999999999991
 21
100.2
 31
0.0
  0
LINE
  5
DB8
  8
DATA
  6
CONTINUOUS
 62
     7
 10
-41.04999999999999
 20
99.400000000000006
 30
0.0
 11
-43.450000000000003
 21
99.400000000000006
 31
0.0
  0
LINE
  5
DB9
  8
DATA
  6
CONTINUOUS
 62
     7
 10
-40.750000000000007
 20
98.599999999999994
 30
0.0
 11
-43.750000000000021
 21
98.599999999999994
 31
0.0
  0
LINE
  5
DBA
  8
DATA
  6
CONTINUOUS
 62
     7
 10
-42.25
 20
96.200000000000003
 30
0.0
 11
-42.25
 21
98.599999999999994
 31
0.0
  0
TEXT
  5
DBB
  8
DATA
 62
     7
 10
-13.115600000000001
 20
174.6748
 30
0.0
 40
3.7208800000000002
  1
PIN 2 HOT
 50
180.0
 41
0.75
  0
LINE
  5
DBC
  8
DATA
  6
CONTINUOUS
 62
     7
 10
-55.990000000000002
 20
118.2
 30
0.0
 11
-55.990000000000002
 21
103.2
 31
0.0
  0
LINE
  5
DBD
  8
DATA
  6
CONTINUOUS
 62
     7
 10
-46.429999999999993
 20
118.2
 30
0.0
 11
-46.429999999999993
 21
103.2
 31
0.0
  0
LINE
  5
DBE
  8
DATA
  6
CONTINUOUS
 62
     7
 10
-47.630000000000003
 20
118.2
 30
0.0
 11
-47.630000000000003
 21
103.2
 31
0.0
  0
LINE
  5
DBF
  8
DATA
  6
CONTINUOUS
 62
     7
 10
-36.86999999999999
 20
118.2
 30
0.0
 11
-36.86999999999999
 21
103.2
 31
0.0
  0
LINE
  5
DC0
  8
DATA
  6
CONTINUOUS
 62
     7
 10
-38.069899999999983
 20
118.2
 30
0.0
 11
-38.069899999999983
 21
103.2
 31
0.0
  0
LINE
  5
DC1
  8
DATA
  6
CONTINUOUS
 62
     7
 10
-27.309999999999992
 20
118.2
 30
0.0
 11
-27.309999999999992
 21
103.2
 31
0.0
  0
LINE
  5
DC2
  8
DATA
  6
CONTINUOUS
 62
     7
 10
-28.510000000000002
 20
118.2
 30
0.0
 11
-28.510000000000002
 21
103.2
 31
0.0
  0
CIRCLE
  5
DC3
  8
DATA
  6
CONTINUOUS
 62
     7
 10
-61.36999999999999
 20
110.6999999999999
 30
0.0
 40
3.5
  0
LINE
  5
DC4
  8
DATA
  6
CONTINUOUS
 62
     7
 10
-61.36999999999999
 20
107.2
 30
0.0
 11
-61.36999999999999
 21
114.2
 31
0.0
  0
LINE
  5
DC5
  8
DATA
  6
CONTINUOUS
 62
     7
 10
-59.36999999999999
 20
110.6999999999999
 30
0.0
 11
-63.36999999999999
 21
110.6999999999999
 31
0.0
  0
CIRCLE
  5
DC6
  8
DATA
  6
CONTINUOUS
 62
     7
 10
-51.809999999999988
 20
110.6999999999999
 30
0.0
 40
3.5
  0
LINE
  5
DC7
  8
DATA
  6
CONTINUOUS
 62
     7
 10
-51.809999999999988
 20
107.2
 30
0.0
 11
-51.809999999999988
 21
114.2
 31
0.0
  0
LINE
  5
DC8
  8
DATA
  6
CONTINUOUS
 62
     7
 10
-49.809999999999981
 20
110.6999999999999
 30
0.0
 11
-53.809999999999988
 21
110.6999999999999
 31
0.0
  0
CIRCLE
  5
DC9
  8
DATA
  6
CONTINUOUS
 62
     7
 10
-42.25
 20
110.6999999999999
 30
0.0
 40
3.5
  0
LINE
  5
DCA
  8
DATA
  6
CONTINUOUS
 62
     7
 10
-42.25
 20
107.2
 30
0.0
 11
-42.25
 21
114.2
 31
0.0
  0
LINE
  5
DCB
  8
DATA
  6
CONTINUOUS
 62
     7
 10
-40.250000000000007
 20
110.6999999999999
 30
0.0
 11
-44.250000000000021
 21
110.6999999999999
 31
0.0
  0
CIRCLE
  5
DCC
  8
DATA
  6
CONTINUOUS
 62
     7
 10
-32.689900000000002
 20
110.6999999999999
 30
0.0
 40
3.5
  0
LINE
  5
DCD
  8
DATA
  6
CONTINUOUS
 62
     7
 10
-32.689900000000002
 20
107.2
 30
0.0
 11
-32.689900000000002
 21
114.2
 31
0.0
  0
LINE
  5
DCE
  8
DATA
  6
CONTINUOUS
 62
     7
 10
-30.689900000000009
 20
110.6999999999999
 30
0.0
 11
-34.689900000000009
 21
110.6999999999999
 31
0.0
  0
CIRCLE
  5
DCF
  8
DATA
  6
CONTINUOUS
 62
     7
 10
-23.13000000000001
 20
110.6999999999999
 30
0.0
 40
3.5
  0
LINE
  5
DD0
  8
DATA
  6
CONTINUOUS
 62
     7
 10
-23.13000000000001
 20
107.2
 30
0.0
 11
-23.13000000000001
 21
114.2
 31
0.0
  0
LINE
  5
DD1
  8
DATA
  6
CONTINUOUS
 62
     7
 10
-21.13000000000001
 20
110.6999999999999
 30
0.0
 11
-25.13000000000001
 21
110.6999999999999
 31
0.0
  0
LINE
  5
DD2
  8
DATA
  6
CONTINUOUS
 62
     7
 10
-57.189900000000009
 20
118.2
 30
0.0
 11
-57.189900000000009
 21
103.2
 31
0.0
  0
LINE
  5
DD3
  8
DATA
  6
CONTINUOUS
 62
     7
 10
0.0
 20
96.200000000000003
 30
0.0
 11
-4.0
 21
96.200000000000003
 31
0.0
  0
LINE
  5
DD4
  8
DATA
  6
CONTINUOUS
 62
     7
 10
-2.0
 20
98.200000000000003
 30
0.0
 11
-2.0
 21
94.199999999999989
 31
0.0
  0
LINE
  5
DD5
  8
DATA
  6
CONTINUOUS
 62
     7
 10
-78.999999999999986
 20
96.200000000000003
 30
0.0
 11
-82.999999999999986
 21
96.200000000000003
 31
0.0
  0
LINE
  5
DD6
  8
DATA
  6
CONTINUOUS
 62
     7
 10
-80.999999999999986
 20
98.200000000000003
 30
0.0
 11
-80.999999999999986
 21
94.199999999999989
 31
0.0
  0
LINE
  5
DD7
  8
DATA
  6
CONTINUOUS
 62
     7
 10
-78.999999999999986
 20
175.6999999999999
 30
0.0
 11
-82.999999999999986
 21
175.6999999999999
 31
0.0
  0
LINE
  5
DD8
  8
DATA
  6
CONTINUOUS
 62
     7
 10
-80.999999999999986
 20
177.6999999999999
 30
0.0
 11
-80.999999999999986
 21
173.6999999999999
 31
0.0
  0
LINE
  5
DD9
  8
DATA
  6
CONTINUOUS
 62
     7
 10
0.0
 20
175.6999999999999
 30
0.0
 11
-4.0
 21
175.6999999999999
 31
0.0
  0
LINE
  5
DDA
  8
DATA
  6
CONTINUOUS
 62
     7
 10
-2.0
 20
177.6999999999999
 30
0.0
 11
-2.0
 21
173.6999999999999
 31
0.0
  0
TEXT
  5
DDB
  8
DATA
 62
     7
 10
-57.733759999999982
 20
201.07541000000001
 30
0.0
 40
2.1166640000000001
  1
MODE
 50
180.0
 41
0.75
  0
LINE
  5
DDC
  8
DATA
  6
CONTINUOUS
 62
     7
 10
-14.75
 20
194.1999999999999
 30
0.0
 11
-14.75
 21
181.2062
 31
0.0
  0
LINE
  5
DDD
  8
DATA
  6
CONTINUOUS
 62
     7
 10
-27.75
 20
194.1999999999999
 30
0.0
 11
-27.75
 21
181.2062
 31
0.0
  0
LINE
  5
DDE
  8
DATA
  6
CONTINUOUS
 62
     7
 10
-14.75
 20
181.2062
 30
0.0
 11
-27.75
 21
181.2062
 31
0.0
  0
LINE
  5
DDF
  8
DATA
  6
CONTINUOUS
 62
     7
 10
-26.316700000000001
 20
185.45580000000001
 30
0.0
 11
-26.316700000000001
 21
187.71680000000001
 31
0.0
  0
LINE
  5
DE0
  8
DATA
  6
CONTINUOUS
 62
     7
 10
-25.554099999999998
 20
185.45580000000001
 30
0.0
 11
-26.316700000000001
 21
185.45580000000001
 31
0.0
  0
LINE
  5
DE1
  8
DATA
  6
CONTINUOUS
 62
     7
 10
-25.553999999999998
 20
183.65790000000001
 30
0.0
 11
-25.553999999999998
 21
185.45569999999981
 31
0.0
  0
LINE
  5
DE2
  8
DATA
  6
CONTINUOUS
 62
     7
 10
-24.437100000000001
 20
183.65790000000001
 30
0.0
 11
-25.554099999999998
 21
183.65790000000001
 31
0.0
  0
LINE
  5
DE3
  8
DATA
  6
CONTINUOUS
 62
     7
 10
-24.437100000000001
 20
182.81349999999981
 30
0.0
 11
-24.437100000000001
 21
183.65790000000001
 31
0.0
  0
LINE
  5
DE4
  8
DATA
  6
CONTINUOUS
 62
     7
 10
-18.1173
 20
182.81349999999981
 30
0.0
 11
-24.437100000000001
 21
182.81349999999981
 31
0.0
  0
LINE
  5
DE5
  8
DATA
  6
CONTINUOUS
 62
     7
 10
-18.1173
 20
183.65790000000001
 30
0.0
 11
-18.1173
 21
182.81349999999981
 31
0.0
  0
LINE
  5
DE6
  8
DATA
  6
CONTINUOUS
 62
     7
 10
-17.000299999999989
 20
183.65790000000001
 30
0.0
 11
-18.1173
 21
183.65790000000001
 31
0.0
  0
LINE
  5
DE7
  8
DATA
  6
CONTINUOUS
 62
     7
 10
-17.000299999999989
 20
185.45569999999981
 30
0.0
 11
-17.000299999999989
 21
183.65790000000001
 31
0.0
  0
LINE
  5
DE8
  8
DATA
  6
CONTINUOUS
 62
     7
 10
-16.183199999999982
 20
185.45580000000001
 30
0.0
 11
-17.000399999999981
 21
185.45580000000001
 31
0.0
  0
LINE
  5
DE9
  8
DATA
  6
CONTINUOUS
 62
     7
 10
-16.183199999999982
 20
187.71680000000001
 30
0.0
 11
-16.183199999999982
 21
185.45580000000001
 31
0.0
  0
LINE
  5
DEA
  8
DATA
  6
CONTINUOUS
 62
     7
 10
-17.000399999999981
 20
187.71680000000001
 30
0.0
 11
-16.183199999999982
 21
187.71680000000001
 31
0.0
  0
LINE
  5
DEB
  8
DATA
  6
CONTINUOUS
 62
     7
 10
-17.000299999999989
 20
190.3044999999999
 30
0.0
 11
-17.000299999999989
 21
187.7167
 31
0.0
  0
LINE
  5
DEC
  8
DATA
  6
CONTINUOUS
 62
     7
 10
-18.1173
 20
190.3044999999999
 30
0.0
 11
-17.000299999999989
 21
190.3044999999999
 31
0.0
  0
LINE
  5
DED
  8
DATA
  6
CONTINUOUS
 62
     7
 10
-18.1173
 20
191.14889999999991
 30
0.0
 11
-18.1173
 21
190.3044999999999
 31
0.0
  0
LINE
  5
DEE
  8
DATA
  6
CONTINUOUS
 62
     7
 10
-19.724599999999992
 20
191.149
 30
0.0
 11
-18.1172
 21
191.149
 31
0.0
  0
LINE
  5
DEF
  8
DATA
  6
CONTINUOUS
 62
     7
 10
-19.724599999999992
 20
191.14889999999991
 30
0.0
 11
-19.724599999999992
 21
192.59270000000001
 31
0.0
  0
LINE
  5
DF0
  8
DATA
  6
CONTINUOUS
 62
     7
 10
-22.775400000000001
 20
192.59270000000001
 30
0.0
 11
-19.724599999999992
 21
192.59270000000001
 31
0.0
  0
LINE
  5
DF1
  8
DATA
  6
CONTINUOUS
 62
     7
 10
-22.775300000000001
 20
191.14889999999991
 30
0.0
 11
-22.775300000000001
 21
192.59270000000001
 31
0.0
  0
LINE
  5
DF2
  8
DATA
  6
CONTINUOUS
 62
     7
 10
-24.437100000000001
 20
191.149
 30
0.0
 11
-22.775300000000001
 21
191.149
 31
0.0
  0
LINE
  5
DF3
  8
DATA
  6
CONTINUOUS
 62
     7
 10
-24.437100000000001
 20
190.3044999999999
 30
0.0
 11
-24.437100000000001
 21
191.14889999999991
 31
0.0
  0
LINE
  5
DF4
  8
DATA
  6
CONTINUOUS
 62
     7
 10
-25.554099999999998
 20
190.3044999999999
 30
0.0
 11
-24.437100000000001
 21
190.3044999999999
 31
0.0
  0
LINE
  5
DF5
  8
DATA
  6
CONTINUOUS
 62
     7
 10
-25.553999999999998
 20
187.7167
 30
0.0
 11
-25.553999999999998
 21
190.3044999999999
 31
0.0
  0
LINE
  5
DF6
  8
DATA
  6
CONTINUOUS
 62
     7
 10
-26.316700000000001
 20
187.71680000000001
 30
0.0
 11
-25.554099999999998
 21
187.71680000000001
 31
0.0
  0
LINE
  5
DF7
  8
DATA
  6
CONTINUOUS
 62
     7
 10
-14.75
 20
194.1999999999999
 30
0.0
 11
-27.75
 21
194.1999999999999
 31
0.0
  0
LINE
  5
DF8
  8
DATA
  6
CONTINUOUS
 62
     7
 10
-19.288599999999999
 20
184.2667999999999
 30
0.0
 11
-19.288599999999999
 21
183.2667999999999
 31
0.0
  0
LINE
  5
DF9
  8
DATA
  6
CONTINUOUS
 62
     7
 10
-23.238600000000002
 20
184.2667999999999
 30
0.0
 11
-23.238600000000002
 21
183.2667999999999
 31
0.0
  0
LINE
  5
DFA
  8
DATA
  6
CONTINUOUS
 62
     7
 10
-21.9038
 20
184.2667999999999
 30
0.0
 11
-21.9038
 21
183.2667999999999
 31
0.0
  0
LINE
  5
DFB
  8
DATA
  6
CONTINUOUS
 62
     7
 10
-20.5961
 20
184.2667999999999
 30
0.0
 11
-20.5961
 21
183.2667999999999
 31
0.0
  0
TEXT
  5
DFC
  8
DATA
 62
     7
 10
-29.350000000000001
 20
185.06199000000001
 30
0.0
 40
4.2333360000000004
  1
FAULT
 50
180.0
 41
0.75
  0
TEXT
  5
DFD
  8
DATA
 62
     7
 10
-58.049520000000001
 20
191.77663000000001
 30
0.0
 40
2.1166640000000001
  1
STEREO
 50
225.0
 41
0.75
  0
LINE
  5
DFE
  8
DATA
  6
CONTINUOUS
 62
     7
 10
-54.750000000000021
 20
194.1999999999999
 30
0.0
 11
-64.749999999999986
 21
194.1999999999999
 31
0.0
  0
LINE
  5
DFF
  8
DATA
  6
CONTINUOUS
 62
     7
 10
-54.750000000000021
 20
197.1999999999999
 30
0.0
 11
-64.749999999999986
 21
197.1999999999999
 31
0.0
  0
LINE
  5
E00
  8
DATA
  6
CONTINUOUS
 62
     7
 10
-54.750000000000021
 20
197.1999999999999
 30
0.0
 11
-54.750000000000021
 21
194.1999999999999
 31
0.0
  0
LINE
  5
E01
  8
DATA
  6
CONTINUOUS
 62
     7
 10
-57.750000000000021
 20
196.6999999999999
 30
0.0
 11
-57.750000000000021
 21
194.6999999999999
 31
0.0
  0
LINE
  5
E02
  8
DATA
  6
CONTINUOUS
 62
     7
 10
-57.750000000000021
 20
194.6999999999999
 30
0.0
 11
-59.750000000000021
 21
194.6999999999999
 31
0.0
  0
LINE
  5
E03
  8
DATA
  6
CONTINUOUS
 62
     7
 10
-57.750000000000021
 20
196.6999999999999
 30
0.0
 11
-59.750000000000021
 21
196.6999999999999
 31
0.0
  0
LINE
  5
E04
  8
DATA
  6
CONTINUOUS
 62
     7
 10
-59.750000000000021
 20
196.6999999999999
 30
0.0
 11
-59.750000000000021
 21
194.6999999999999
 31
0.0
  0
LINE
  5
E05
  8
DATA
  6
CONTINUOUS
 62
     7
 10
-58.250000000000021
 20
196.6999999999999
 30
0.0
 11
-58.250000000000021
 21
194.6999999999999
 31
0.0
  0
LINE
  5
E06
  8
DATA
  6
CONTINUOUS
 62
     7
 10
-58.750000000000021
 20
196.6999999999999
 30
0.0
 11
-58.750000000000021
 21
194.6999999999999
 31
0.0
  0
LINE
  5
E07
  8
DATA
  6
CONTINUOUS
 62
     7
 10
-59.250000000000021
 20
196.6999999999999
 30
0.0
 11
-59.250000000000021
 21
194.6999999999999
 31
0.0
  0
LINE
  5
E08
  8
DATA
  6
CONTINUOUS
 62
     7
 10
-64.749999999999986
 20
197.1999999999999
 30
0.0
 11
-64.749999999999986
 21
194.1999999999999
 31
0.0
  0
LINE
  5
E09
  8
DATA
  6
CONTINUOUS
 62
     7
 10
-59.750000000000021
 20
194.1999999999999
 30
0.0
 11
-59.750000000000021
 21
192.1999999999999
 31
0.0
  0
LINE
  5
E0A
  8
DATA
  6
CONTINUOUS
 62
     7
 10
-66.821070000000006
 20
185.12892999999991
 30
0.0
 11
-59.750000000000021
 21
192.1999999999999
 31
0.0
  0
LINE
  5
E0B
  8
DATA
  6
CONTINUOUS
 62
     7
 10
-68.749999999999986
 20
194.1999999999999
 30
0.0
 11
-78.749999999999986
 21
194.1999999999999
 31
0.0
  0
LINE
  5
E0C
  8
DATA
  6
CONTINUOUS
 62
     7
 10
-68.749999999999986
 20
197.1999999999999
 30
0.0
 11
-78.749999999999986
 21
197.1999999999999
 31
0.0
  0
LINE
  5
E0D
  8
DATA
  6
CONTINUOUS
 62
     7
 10
-68.749999999999986
 20
197.1999999999999
 30
0.0
 11
-68.749999999999986
 21
194.1999999999999
 31
0.0
  0
LINE
  5
E0E
  8
DATA
  6
CONTINUOUS
 62
     7
 10
-71.749999999999986
 20
196.6999999999999
 30
0.0
 11
-71.749999999999986
 21
194.6999999999999
 31
0.0
  0
LINE
  5
E0F
  8
DATA
  6
CONTINUOUS
 62
     7
 10
-71.749999999999986
 20
194.6999999999999
 30
0.0
 11
-73.749999999999986
 21
194.6999999999999
 31
0.0
  0
LINE
  5
E10
  8
DATA
  6
CONTINUOUS
 62
     7
 10
-71.749999999999986
 20
196.6999999999999
 30
0.0
 11
-73.749999999999986
 21
196.6999999999999
 31
0.0
  0
LINE
  5
E11
  8
DATA
  6
CONTINUOUS
 62
     7
 10
-73.749999999999986
 20
196.6999999999999
 30
0.0
 11
-73.749999999999986
 21
194.6999999999999
 31
0.0
  0
LINE
  5
E12
  8
DATA
  6
CONTINUOUS
 62
     7
 10
-72.249999999999986
 20
196.6999999999999
 30
0.0
 11
-72.249999999999986
 21
194.6999999999999
 31
0.0
  0
LINE
  5
E13
  8
DATA
  6
CONTINUOUS
 62
     7
 10
-72.749999999999986
 20
196.6999999999999
 30
0.0
 11
-72.749999999999986
 21
194.6999999999999
 31
0.0
  0
LINE
  5
E14
  8
DATA
  6
CONTINUOUS
 62
     7
 10
-73.249999999999986
 20
196.6999999999999
 30
0.0
 11
-73.249999999999986
 21
194.6999999999999
 31
0.0
  0
LINE
  5
E15
  8
DATA
  6
CONTINUOUS
 62
     7
 10
-78.749999999999986
 20
197.1999999999999
 30
0.0
 11
-78.749999999999986
 21
194.1999999999999
 31
0.0
  0
LINE
  5
E16
  8
DATA
  6
CONTINUOUS
 62
     7
 10
-73.749999999999986
 20
194.1999999999999
 30
0.0
 11
-73.749999999999986
 21
192.1999999999999
 31
0.0
  0
LINE
  5
E17
  8
DATA
  6
CONTINUOUS
 62
     7
 10
-82.942390000000003
 20
183.00761
 30
0.0
 11
-73.749999999999986
 21
192.1999999999999
 31
0.0
  0
TEXT
  5
E18
  8
DATA
 62
     7
 10
-65.249520000000004
 20
191.77663000000001
 30
0.0
 40
2.1166640000000001
  1
BRIDGE
 50
225.0
 41
0.75
  0
TEXT
  5
E19
  8
DATA
 62
     7
 10
-66.473969999999994
 20
201.07541000000001
 30
0.0
 40
2.1166640000000001
  1
SENSITIVITY
 50
180.0
 41
0.75
  0
TEXT
  5
E1A
  8
DATA
 62
     7
 10
-72.049519999999987
 20
191.77663000000001
 30
0.0
 40
2.1166640000000001
  1
1.4V
 50
225.0
 41
0.75
  0
TEXT
  5
E1B
  8
DATA
 62
     7
 10
-79.249520000000004
 20
191.77663000000001
 30
0.0
 40
2.1166640000000001
  1
26dB
 50
225.0
 41
0.75
  0
LINE
  5
E1C
  8
DATA
  6
CONTINUOUS
 62
     7
 10
-220.25
 20
81.5
 30
0.0
 11
-220.25
 21
126.5
 31
0.0
  0
LINE
  5
E1D
  8
DATA
  6
CONTINUOUS
 62
     7
 10
-304.24999999999989
 20
81.5
 30
0.0
 11
-304.24999999999989
 21
126.5
 31
0.0
  0
LINE
  5
E1E
  8
DATA
  6
CONTINUOUS
 62
     7
 10
-304.24999999999989
 20
126.5
 30
0.0
 11
-220.25
 21
126.5
 31
0.0
  0
CIRCLE
  5
E1F
  8
DATA
  6
CONTINUOUS
 62
     7
 10
-253.4999999999998
 20
89.25
 30
0.0
 40
8.0
  0
LINE
  5
E20
  8
DATA
  6
CONTINUOUS
 62
     7
 10
-253.08250000000001
 20
92.473100000000002
 30
0.0
 11
-250.6317
 21
96.718100000000007
 31
0.0
  0
LINE
  5
E21
  8
DATA
  6
CONTINUOUS
 62
     7
 10
-253.9174999999999
 20
92.473100000000002
 30
0.0
 11
-256.36829999999992
 21
96.718100000000007
 31
0.0
  0
CIRCLE
  5
E22
  8
DATA
  6
CONTINUOUS
 62
     7
 10
-253.4999999999998
 20
89.25
 30
0.0
 40
2.25
  0
CIRCLE
  5
E23
  8
DATA
  6
CONTINUOUS
 62
     7
 10
-253.4999999999998
 20
89.25
 30
0.0
 40
3.25
  0
LINE
  5
E24
  8
DATA
  6
CONTINUOUS
 62
     7
 10
-250.9173999999999
 20
91.223100000000002
 30
0.0
 11
-248.4666
 21
95.468100000000007
 31
0.0
  0
LINE
  5
E25
  8
DATA
  6
CONTINUOUS
 62
     7
 10
-256.08260000000001
 20
91.223100000000002
 30
0.0
 11
-258.53339999999992
 21
95.468100000000007
 31
0.0
  0
LINE
  5
E26
  8
DATA
  6
CONTINUOUS
 62
     7
 10
-250.49999999999989
 20
90.5
 30
0.0
 11
-245.59819999999999
 21
90.5
 31
0.0
  0
LINE
  5
E27
  8
DATA
  6
CONTINUOUS
 62
     7
 10
-250.49999999999989
 20
88.0
 30
0.0
 11
-245.59819999999999
 21
88.0
 31
0.0
  0
LINE
  5
E28
  8
DATA
  6
CONTINUOUS
 62
     7
 10
-256.49999999999989
 20
90.5
 30
0.0
 11
-261.40179999999992
 21
90.5
 31
0.0
  0
LINE
  5
E29
  8
DATA
  6
CONTINUOUS
 62
     7
 10
-256.49999999999989
 20
88.0
 30
0.0
 11
-261.40179999999992
 21
88.0
 31
0.0
  0
LINE
  5
E2A
  8
DATA
  6
CONTINUOUS
 62
     7
 10
-253.08250000000001
 20
86.027000000000015
 30
0.0
 11
-250.6317
 21
81.782000000000025
 31
0.0
  0
LINE
  5
E2B
  8
DATA
  6
CONTINUOUS
 62
     7
 10
-250.9173999999999
 20
87.277000000000015
 30
0.0
 11
-248.4666
 21
83.032000000000025
 31
0.0
  0
LINE
  5
E2C
  8
DATA
  6
CONTINUOUS
 62
     7
 10
-256.08260000000001
 20
87.277000000000015
 30
0.0
 11
-258.53339999999992
 21
83.032000000000025
 31
0.0
  0
LINE
  5
E2D
  8
DATA
  6
CONTINUOUS
 62
     7
 10
-253.9174999999999
 20
86.027000000000015
 30
0.0
 11
-256.36829999999992
 21
81.782000000000025
 31
0.0
  0
CIRCLE
  5
E2E
  8
DATA
  6
CONTINUOUS
 62
     7
 10
-253.4999999999998
 20
108.25
 30
0.0
 40
8.0
  0
CIRCLE
  5
E2F
  8
DATA
  6
CONTINUOUS
 62
     7
 10
-253.4999999999998
 20
108.25
 30
0.0
 40
2.25
  0
CIRCLE
  5
E30
  8
DATA
  6
CONTINUOUS
 62
     7
 10
-253.4999999999998
 20
108.25
 30
0.0
 40
3.25
  0
LINE
  5
E31
  8
DATA
  6
CONTINUOUS
 62
     7
 10
-250.27690000000001
 20
108.66759999999979
 30
0.0
 11
-246.03189999999981
 21
111.1183999999998
 31
0.0
  0
LINE
  5
E32
  8
DATA
  6
CONTINUOUS
 62
     7
 10
-251.5268999999999
 20
110.8325999999999
 30
0.0
 11
-247.28189999999981
 21
113.2834
 31
0.0
  0
LINE
  5
E33
  8
DATA
  6
CONTINUOUS
 62
     7
 10
-254.7499999999998
 20
111.25
 30
0.0
 11
-254.7499999999998
 21
116.15179999999999
 31
0.0
  0
LINE
  5
E34
  8
DATA
  6
CONTINUOUS
 62
     7
 10
-252.24999999999989
 20
111.25
 30
0.0
 11
-252.24999999999989
 21
116.15179999999999
 31
0.0
  0
LINE
  5
E35
  8
DATA
  6
CONTINUOUS
 62
     7
 10
-255.4730999999999
 20
110.8325999999999
 30
0.0
 11
-259.71809999999982
 21
113.2834
 31
0.0
  0
LINE
  5
E36
  8
DATA
  6
CONTINUOUS
 62
     7
 10
-256.72309999999999
 20
108.66759999999979
 30
0.0
 11
-260.96809999999999
 21
111.1183999999998
 31
0.0
  0
LINE
  5
E37
  8
DATA
  6
CONTINUOUS
 62
     7
 10
-255.4730999999999
 20
105.6675
 30
0.0
 11
-259.71809999999982
 21
103.2167
 31
0.0
  0
LINE
  5
E38
  8
DATA
  6
CONTINUOUS
 62
     7
 10
-256.72309999999999
 20
107.8324999999999
 30
0.0
 11
-260.96809999999999
 21
105.3817
 31
0.0
  0
LINE
  5
E39
  8
DATA
  6
CONTINUOUS
 62
     7
 10
-252.24999999999989
 20
105.2501
 30
0.0
 11
-252.24999999999989
 21
100.3482999999999
 31
0.0
  0
LINE
  5
E3A
  8
DATA
  6
CONTINUOUS
 62
     7
 10
-254.7499999999998
 20
105.2501
 30
0.0
 11
-254.7499999999998
 21
100.3482999999999
 31
0.0
  0
LINE
  5
E3B
  8
DATA
  6
CONTINUOUS
 62
     7
 10
-250.27690000000001
 20
107.8324999999999
 30
0.0
 11
-246.03189999999981
 21
105.3817
 31
0.0
  0
LINE
  5
E3C
  8
DATA
  6
CONTINUOUS
 62
     7
 10
-251.5268999999999
 20
105.6675
 30
0.0
 11
-247.28189999999981
 21
103.2167
 31
0.0
  0
LINE
  5
E3D
  8
DATA
  6
CONTINUOUS
 62
     7
 10
-245.2499999999998
 20
81.5
 30
0.0
 11
-245.2499999999998
 21
116.0
 31
0.0
  0
LINE
  5
E3E
  8
DATA
  6
CONTINUOUS
 62
     7
 10
-279.24999999999989
 20
81.5
 30
0.0
 11
-279.24999999999989
 21
116.0
 31
0.0
  0
LINE
  5
E3F
  8
DATA
  6
CONTINUOUS
 62
     7
 10
-261.74999999999977
 20
81.5
 30
0.0
 11
-261.74999999999977
 21
116.0
 31
0.0
  0
LINE
  5
E40
  8
DATA
  6
CONTINUOUS
 62
     7
 10
-262.74999999999989
 20
81.5
 30
0.0
 11
-262.74999999999989
 21
116.0
 31
0.0
  0
LINE
  5
E41
  8
DATA
  6
CONTINUOUS
 62
     7
 10
-279.24999999999989
 20
116.0
 30
0.0
 11
-245.2499999999998
 21
116.0
 31
0.0
  0
CIRCLE
  5
E42
  8
DATA
  6
CONTINUOUS
 62
     7
 10
-270.99999999999989
 20
89.25
 30
0.0
 40
8.0
  0
LINE
  5
E43
  8
DATA
  6
CONTINUOUS
 62
     7
 10
-270.58249999999992
 20
92.473100000000002
 30
0.0
 11
-268.13170000000002
 21
96.718100000000007
 31
0.0
  0
LINE
  5
E44
  8
DATA
  6
CONTINUOUS
 62
     7
 10
-271.41750000000002
 20
92.473100000000002
 30
0.0
 11
-273.86829999999992
 21
96.718100000000007
 31
0.0
  0
CIRCLE
  5
E45
  8
DATA
  6
CONTINUOUS
 62
     7
 10
-270.99999999999989
 20
89.25
 30
0.0
 40
2.25
  0
CIRCLE
  5
E46
  8
DATA
  6
CONTINUOUS
 62
     7
 10
-270.99999999999989
 20
89.25
 30
0.0
 40
3.25
  0
LINE
  5
E47
  8
DATA
  6
CONTINUOUS
 62
     7
 10
-268.41739999999999
 20
91.223100000000002
 30
0.0
 11
-265.96660000000003
 21
95.468100000000007
 31
0.0
  0
LINE
  5
E48
  8
DATA
  6
CONTINUOUS
 62
     7
 10
-273.58260000000001
 20
91.223100000000002
 30
0.0
 11
-276.03339999999992
 21
95.468100000000007
 31
0.0
  0
LINE
  5
E49
  8
DATA
  6
CONTINUOUS
 62
     7
 10
-267.99999999999977
 20
90.5
 30
0.0
 11
-263.09820000000002
 21
90.5
 31
0.0
  0
LINE
  5
E4A
  8
DATA
  6
CONTINUOUS
 62
     7
 10
-267.99999999999977
 20
88.0
 30
0.0
 11
-263.09820000000002
 21
88.0
 31
0.0
  0
LINE
  5
E4B
  8
DATA
  6
CONTINUOUS
 62
     7
 10
-273.99999999999977
 20
90.5
 30
0.0
 11
-278.90179999999992
 21
90.5
 31
0.0
  0
LINE
  5
E4C
  8
DATA
  6
CONTINUOUS
 62
     7
 10
-273.99999999999977
 20
88.0
 30
0.0
 11
-278.90179999999992
 21
88.0
 31
0.0
  0
LINE
  5
E4D
  8
DATA
  6
CONTINUOUS
 62
     7
 10
-270.58249999999992
 20
86.027000000000015
 30
0.0
 11
-268.13170000000002
 21
81.782000000000025
 31
0.0
  0
LINE
  5
E4E
  8
DATA
  6
CONTINUOUS
 62
     7
 10
-268.41739999999999
 20
87.277000000000015
 30
0.0
 11
-265.96660000000003
 21
83.032000000000025
 31
0.0
  0
LINE
  5
E4F
  8
DATA
  6
CONTINUOUS
 62
     7
 10
-273.58260000000001
 20
87.277000000000015
 30
0.0
 11
-276.03339999999992
 21
83.032000000000025
 31
0.0
  0
LINE
  5
E50
  8
DATA
  6
CONTINUOUS
 62
     7
 10
-271.41750000000002
 20
86.027000000000015
 30
0.0
 11
-273.86829999999992
 21
81.782000000000025
 31
0.0
  0
CIRCLE
  5
E51
  8
DATA
  6
CONTINUOUS
 62
     7
 10
-270.99999999999989
 20
108.25
 30
0.0
 40
8.0
  0
CIRCLE
  5
E52
  8
DATA
  6
CONTINUOUS
 62
     7
 10
-270.99999999999989
 20
108.25
 30
0.0
 40
2.25
  0
CIRCLE
  5
E53
  8
DATA
  6
CONTINUOUS
 62
     7
 10
-270.99999999999989
 20
108.25
 30
0.0
 40
3.25
  0
LINE
  5
E54
  8
DATA
  6
CONTINUOUS
 62
     7
 10
-267.77690000000001
 20
108.66759999999979
 30
0.0
 11
-263.53189999999989
 21
111.1183999999998
 31
0.0
  0
LINE
  5
E55
  8
DATA
  6
CONTINUOUS
 62
     7
 10
-269.02690000000001
 20
110.8325999999999
 30
0.0
 11
-264.78189999999978
 21
113.2834
 31
0.0
  0
LINE
  5
E56
  8
DATA
  6
CONTINUOUS
 62
     7
 10
-272.24999999999977
 20
111.25
 30
0.0
 11
-272.24999999999977
 21
116.15179999999999
 31
0.0
  0
LINE
  5
E57
  8
DATA
  6
CONTINUOUS
 62
     7
 10
-269.74999999999977
 20
111.25
 30
0.0
 11
-269.74999999999977
 21
116.15179999999999
 31
0.0
  0
LINE
  5
E58
  8
DATA
  6
CONTINUOUS
 62
     7
 10
-272.97309999999999
 20
110.8325999999999
 30
0.0
 11
-277.21809999999982
 21
113.2834
 31
0.0
  0
LINE
  5
E59
  8
DATA
  6
CONTINUOUS
 62
     7
 10
-274.22309999999982
 20
108.66759999999979
 30
0.0
 11
-278.46809999999982
 21
111.1183999999998
 31
0.0
  0
LINE
  5
E5A
  8
DATA
  6
CONTINUOUS
 62
     7
 10
-272.97309999999999
 20
105.6675
 30
0.0
 11
-277.21809999999982
 21
103.2167
 31
0.0
  0
LINE
  5
E5B
  8
DATA
  6
CONTINUOUS
 62
     7
 10
-274.22309999999982
 20
107.8324999999999
 30
0.0
 11
-278.46809999999982
 21
105.3817
 31
0.0
  0
LINE
  5
E5C
  8
DATA
  6
CONTINUOUS
 62
     7
 10
-269.74999999999977
 20
105.2501
 30
0.0
 11
-269.74999999999977
 21
100.3482999999999
 31
0.0
  0
LINE
  5
E5D
  8
DATA
  6
CONTINUOUS
 62
     7
 10
-272.24999999999977
 20
105.2501
 30
0.0
 11
-272.24999999999977
 21
100.3482999999999
 31
0.0
  0
LINE
  5
E5E
  8
DATA
  6
CONTINUOUS
 62
     7
 10
-267.77690000000001
 20
107.8324999999999
 30
0.0
 11
-263.53189999999989
 21
105.3817
 31
0.0
  0
LINE
  5
E5F
  8
DATA
  6
CONTINUOUS
 62
     7
 10
-269.02690000000001
 20
105.6675
 30
0.0
 11
-264.78189999999978
 21
103.2167
 31
0.0
  0
LINE
  5
E60
  8
DATA
  6
CONTINUOUS
 62
     7
 10
-242.9999999999998
 20
114.0
 30
0.0
 11
-242.9999999999998
 21
102.4999999999999
 31
0.0
  0
LINE
  5
E61
  8
DATA
  6
CONTINUOUS
 62
     7
 10
-281.49999999999989
 20
114.0
 30
0.0
 11
-281.49999999999989
 21
102.4999999999999
 31
0.0
  0
LINE
  5
E62
  8
DATA
  6
CONTINUOUS
 62
     7
 10
-242.9999999999998
 20
102.4999999999999
 30
0.0
 11
-245.2499999999998
 21
102.4999999999999
 31
0.0
  0
LINE
  5
E63
  8
DATA
  6
CONTINUOUS
 62
     7
 10
-242.9999999999998
 20
114.0
 30
0.0
 11
-245.2499999999998
 21
114.0
 31
0.0
  0
LINE
  5
E64
  8
DATA
  6
CONTINUOUS
 62
     7
 10
-281.49999999999989
 20
102.4999999999999
 30
0.0
 11
-279.24999999999989
 21
102.4999999999999
 31
0.0
  0
LINE
  5
E65
  8
DATA
  6
CONTINUOUS
 62
     7
 10
-281.49999999999989
 20
114.0
 30
0.0
 11
-279.24999999999989
 21
114.0
 31
0.0
  0
LINE
  5
E66
  8
DATA
  6
CONTINUOUS
 62
     7
 10
-242.9999999999998
 20
95.0
 30
0.0
 11
-242.9999999999998
 21
83.499999999999986
 31
0.0
  0
LINE
  5
E67
  8
DATA
  6
CONTINUOUS
 62
     7
 10
-281.49999999999989
 20
95.0
 30
0.0
 11
-281.49999999999989
 21
83.499999999999986
 31
0.0
  0
LINE
  5
E68
  8
DATA
  6
CONTINUOUS
 62
     7
 10
-242.9999999999998
 20
83.499999999999986
 30
0.0
 11
-245.2499999999998
 21
83.499999999999986
 31
0.0
  0
LINE
  5
E69
  8
DATA
  6
CONTINUOUS
 62
     7
 10
-242.9999999999998
 20
95.0
 30
0.0
 11
-245.2499999999998
 21
95.0
 31
0.0
  0
LINE
  5
E6A
  8
DATA
  6
CONTINUOUS
 62
     7
 10
-281.49999999999989
 20
83.499999999999986
 30
0.0
 11
-279.24999999999989
 21
83.499999999999986
 31
0.0
  0
LINE
  5
E6B
  8
DATA
  6
CONTINUOUS
 62
     7
 10
-281.49999999999989
 20
95.0
 30
0.0
 11
-279.24999999999989
 21
95.0
 31
0.0
  0
CIRCLE
  5
E6C
  8
DATA
  6
CONTINUOUS
 62
     7
 10
-299.74999999999977
 20
83.200000000000003
 30
0.0
 40
1.5
  0
LINE
  5
E6D
  8
DATA
  6
CONTINUOUS
 62
     7
 10
-298.68929999999978
 20
84.260700000000014
 30
0.0
 11
-299.32909999999993
 21
84.216300000000004
 31
0.0
  0
LINE
  5
E6E
  8
DATA
  6
CONTINUOUS
 62
     7
 10
-298.68939999999992
 20
84.260700000000014
 30
0.0
 11
-298.73379999999992
 21
83.620900000000006
 31
0.0
  0
LINE
  5
E6F
  8
DATA
  6
CONTINUOUS
 62
     7
 10
-298.68939999999992
 20
82.139300000000006
 30
0.0
 11
-298.73379999999992
 21
82.7791
 31
0.0
  0
LINE
  5
E70
  8
DATA
  6
CONTINUOUS
 62
     7
 10
-298.73379999999992
 20
83.621000000000024
 30
0.0
 11
-298.24999999999989
 21
83.200000000000003
 31
0.0
  0
LINE
  5
E71
  8
DATA
  6
CONTINUOUS
 62
     7
 10
-298.73379999999992
 20
82.778999999999982
 30
0.0
 11
-298.24999999999989
 21
83.200000000000003
 31
0.0
  0
LINE
  5
E72
  8
DATA
  6
CONTINUOUS
 62
     7
 10
-300.76629999999989
 20
83.621000000000024
 30
0.0
 11
-301.25009999999992
 21
83.200000000000003
 31
0.0
  0
LINE
  5
E73
  8
DATA
  6
CONTINUOUS
 62
     7
 10
-300.76629999999989
 20
82.778999999999982
 30
0.0
 11
-301.25009999999992
 21
83.200000000000003
 31
0.0
  0
LINE
  5
E74
  8
DATA
  6
CONTINUOUS
 62
     7
 10
-299.74999999999977
 20
84.700000000000003
 30
0.0
 11
-300.17099999999999
 21
84.216200000000015
 31
0.0
  0
LINE
  5
E75
  8
DATA
  6
CONTINUOUS
 62
     7
 10
-299.75009999999992
 20
84.700000000000003
 30
0.0
 11
-299.32909999999993
 21
84.216200000000015
 31
0.0
  0
LINE
  5
E76
  8
DATA
  6
CONTINUOUS
 62
     7
 10
-300.81069999999983
 20
84.260700000000014
 30
0.0
 11
-300.76629999999989
 21
83.620900000000006
 31
0.0
  0
LINE
  5
E77
  8
DATA
  6
CONTINUOUS
 62
     7
 10
-300.81079999999997
 20
84.260700000000014
 30
0.0
 11
-300.17099999999999
 21
84.216300000000004
 31
0.0
  0
LINE
  5
E78
  8
DATA
  6
CONTINUOUS
 62
     7
 10
-300.81069999999983
 20
82.139300000000006
 30
0.0
 11
-300.76629999999989
 21
82.7791
 31
0.0
  0
CIRCLE
  5
E79
  8
DATA
  6
CONTINUOUS
 62
     7
 10
-224.7499999999998
 20
121.1999999999999
 30
0.0
 40
3.5
  0
CIRCLE
  5
E7A
  8
DATA
  6
CONTINUOUS
 62
     7
 10
-224.7499999999998
 20
121.1999999999999
 30
0.0
 40
1.5
  0
LINE
  5
E7B
  8
DATA
  6
CONTINUOUS
 62
     7
 10
-223.6892999999998
 20
122.2606999999999
 30
0.0
 11
-224.32910000000001
 21
122.2163
 31
0.0
  0
LINE
  5
E7C
  8
DATA
  6
CONTINUOUS
 62
     7
 10
-223.6892999999998
 20
120.13930000000001
 30
0.0
 11
-224.32910000000001
 21
120.1837
 31
0.0
  0
LINE
  5
E7D
  8
DATA
  6
CONTINUOUS
 62
     7
 10
-223.68939999999989
 20
122.2606999999999
 30
0.0
 11
-223.7338
 21
121.62090000000001
 31
0.0
  0
LINE
  5
E7E
  8
DATA
  6
CONTINUOUS
 62
     7
 10
-223.68939999999989
 20
120.13930000000001
 30
0.0
 11
-223.7338
 21
120.7791
 31
0.0
  0
LINE
  5
E7F
  8
DATA
  6
CONTINUOUS
 62
     7
 10
-223.7338
 20
121.621
 30
0.0
 11
-223.24999999999989
 21
121.1999999999999
 31
0.0
  0
LINE
  5
E80
  8
DATA
  6
CONTINUOUS
 62
     7
 10
-223.7338
 20
120.7789999999999
 30
0.0
 11
-223.24999999999989
 21
121.1999999999999
 31
0.0
  0
LINE
  5
E81
  8
DATA
  6
CONTINUOUS
 62
     7
 10
-225.76629999999989
 20
121.621
 30
0.0
 11
-226.2500999999998
 21
121.1999999999999
 31
0.0
  0
LINE
  5
E82
  8
DATA
  6
CONTINUOUS
 62
     7
 10
-225.76629999999989
 20
120.7789999999999
 30
0.0
 11
-226.2500999999998
 21
121.1999999999999
 31
0.0
  0
LINE
  5
E83
  8
DATA
  6
CONTINUOUS
 62
     7
 10
-224.7499999999998
 20
122.7
 30
0.0
 11
-225.17099999999999
 21
122.2161999999999
 31
0.0
  0
LINE
  5
E84
  8
DATA
  6
CONTINUOUS
 62
     7
 10
-224.7501
 20
122.7
 30
0.0
 11
-224.32910000000001
 21
122.2161999999999
 31
0.0
  0
LINE
  5
E85
  8
DATA
  6
CONTINUOUS
 62
     7
 10
-225.8106999999998
 20
122.2606999999999
 30
0.0
 11
-225.76629999999989
 21
121.62090000000001
 31
0.0
  0
LINE
  5
E86
  8
DATA
  6
CONTINUOUS
 62
     7
 10
-225.8108
 20
122.2606999999999
 30
0.0
 11
-225.17099999999999
 21
122.2163
 31
0.0
  0
LINE
  5
E87
  8
DATA
  6
CONTINUOUS
 62
     7
 10
-224.7499999999998
 20
119.7
 30
0.0
 11
-225.17099999999999
 21
120.18380000000001
 31
0.0
  0
LINE
  5
E88
  8
DATA
  6
CONTINUOUS
 62
     7
 10
-224.7501
 20
119.7
 30
0.0
 11
-224.32910000000001
 21
120.18380000000001
 31
0.0
  0
LINE
  5
E89
  8
DATA
  6
CONTINUOUS
 62
     7
 10
-225.8106999999998
 20
120.13930000000001
 30
0.0
 11
-225.76629999999989
 21
120.7791
 31
0.0
  0
LINE
  5
E8A
  8
DATA
  6
CONTINUOUS
 62
     7
 10
-225.8108
 20
120.13930000000001
 30
0.0
 11
-225.17099999999999
 21
120.1837
 31
0.0
  0
LINE
  5
E8B
  8
DATA
  6
CONTINUOUS
 62
     7
 10
-231.24852999999999
 20
89.25
 30
0.0
 11
-236.2485299999999
 21
89.25
 31
0.0
  0
LINE
  5
E8C
  8
DATA
  6
CONTINUOUS
 62
     7
 10
-233.7485299999999
 20
91.75
 30
0.0
 11
-233.7485299999999
 21
86.75
 31
0.0
  0
LINE
  5
E8D
  8
DATA
  6
CONTINUOUS
 62
     7
 10
-231.24852999999999
 20
108.25
 30
0.0
 11
-236.2485299999999
 21
108.25
 31
0.0
  0
TEXT
  5
E8E
  8
DATA
 62
     7
 10
-228.45685999999989
 20
100.3374959999999
 30
0.0
 40
4.2333360000000004
  1
CH-2
 50
180.0
 41
0.75
 11
-228.45685999999989
 21
96.104159999999993
 31
0.0
 73
     3
  0
LINE
  5
E8F
  8
DATA
  6
CONTINUOUS
 62
     7
 10
-293.25146999999998
 20
89.25
 30
0.0
 11
-288.25146999999993
 21
89.25
 31
0.0
  0
LINE
  5
E90
  8
DATA
  6
CONTINUOUS
 62
     7
 10
-290.75146999999993
 20
91.75
 30
0.0
 11
-290.75146999999993
 21
86.75
 31
0.0
  0
LINE
  5
E91
  8
DATA
  6
CONTINUOUS
 62
     7
 10
-293.25146999999998
 20
108.25
 30
0.0
 11
-288.25146999999993
 21
108.25
 31
0.0
  0
TEXT
  5
E92
  8
DATA
 62
     7
 10
-285.45979999999992
 20
100.3374959999999
 30
0.0
 40
4.2333360000000004
  1
CH-1
 50
180.0
 41
0.75
 11
-285.45979999999992
 21
96.104159999999993
 31
0.0
 73
     3
  0
TEXT
  5
E93
  8
DATA
 62
     7
 10
-254.31249
 20
123.2416659999999
 30
0.0
 40
4.2333360000000004
  1
OUTPUT
 50
180.0
 41
0.75
 11
-254.31249
 21
119.0083299999999
 31
0.0
 73
     3
  0
ARC
  5
E94
  8
DATA
  6
CONTINUOUS
 62
     7
 10
-299.74999999999977
 20
83.200000000000003
 30
0.0
 40
3.4999985068710702
 50
330.94070534997883
 51
209.0592946500208
  0
CIRCLE
  5
E95
  8
DATA
  6
CONTINUOUS
 62
     7
 10
-232.7499999999998
 20
179.1999999999999
 30
0.0
 40
11.74999999999994
  0
ARC
  5
E96
  8
DATA
  6
CONTINUOUS
 62
     7
 10
-232.7499999999998
 20
179.1999999999999
 30
0.0
 40
6.1995769992798699
 50
240.00201157424181
 51
330.00329548478823
  0
ARC
  5
E97
  8
DATA
  6
CONTINUOUS
 62
     7
 10
-232.7499999999998
 20
179.1999999999999
 30
0.0
 40
6.1996037945984748
 50
59.997885911870902
 51
149.99788591187081
  0
ARC
  5
E98
  8
DATA
  6
CONTINUOUS
 62
     7
 10
-232.7499999999998
 20
179.1999999999999
 30
0.0
 40
3.6001806079695262
 50
60.001659476077172
 51
149.99453367927359
  0
ARC
  5
E99
  8
DATA
  6
CONTINUOUS
 62
     7
 10
-232.7499999999998
 20
179.1999999999999
 30
0.0
 40
9.8001367750659494
 50
255.22057934059109
 51
284.77942065940869
  0
ARC
  5
E9A
  8
DATA
  6
CONTINUOUS
 62
     7
 10
-232.7499999999998
 20
179.1999999999999
 30
0.0
 40
9.8000753650163368
 50
81.195697341664342
 51
98.804302658335672
  0
ARC
  5
E9B
  8
DATA
  6
CONTINUOUS
 62
     7
 10
-232.7499999999998
 20
179.1999999999999
 30
0.0
 40
3.6002074176358341
 50
239.9945550346539
 51
330.00168078730502
  0
ARC
  5
E9C
  8
DATA
  6
CONTINUOUS
 62
     7
 10
-232.7499999999998
 20
179.1999999999999
 30
0.0
 40
8.8000859410576169
 50
98.804028767499261
 51
253.49565711471871
  0
ARC
  5
E9D
  8
DATA
  6
CONTINUOUS
 62
     7
 10
-232.7499999999998
 20
179.1999999999999
 30
0.0
 40
5.6246195693575753
 50
150.00481996647909
 51
239.99751682417121
  0
LINE
  5
E9E
  8
DATA
  6
CONTINUOUS
 62
     7
 10
-235.5619999999999
 20
174.32900000000001
 30
0.0
 11
-235.8495999999999
 21
173.83080000000001
 31
0.0
  0
LINE
  5
E9F
  8
DATA
  6
CONTINUOUS
 62
     7
 10
-235.26089999999999
 20
180.64999999999981
 30
0.0
 11
-235.86770000000001
 21
181.00040000000001
 31
0.0
  0
LINE
  5
EA0
  8
DATA
  6
CONTINUOUS
 62
     7
 10
-235.2499999999998
 20
170.7624999999999
 30
0.0
 11
-235.2499999999998
 21
169.72409999999991
 31
0.0
  0
LINE
  5
EA1
  8
DATA
  6
CONTINUOUS
 62
     7
 10
-234.2499999999998
 20
188.88470000000001
 30
0.0
 11
-234.2499999999998
 21
187.87129999999991
 31
0.0
  0
ARC
  5
EA2
  8
DATA
  6
CONTINUOUS
 62
     7
 10
-232.7499999999998
 20
179.1999999999999
 30
0.0
 40
2.8995032005500949
 50
149.99433197284711
 51
239.9943319728462
  0
LINE
  5
EA3
  8
DATA
  6
CONTINUOUS
 62
     7
 10
-234.19990000000001
 20
176.68899999999999
 30
0.0
 11
-234.55029999999991
 21
176.0822
 31
0.0
  0
CIRCLE
  5
EA4
  8
DATA
  6
CONTINUOUS
 62
     7
 10
-242.2499999999998
 20
191.1999999999999
 30
0.0
 40
2.0
  0
LINE
  5
EA5
  8
DATA
  6
CONTINUOUS
 62
     7
 10
-241.2499999999998
 20
191.1999999999999
 30
0.0
 11
-243.2499999999998
 21
191.1999999999999
 31
0.0
  0
LINE
  5
EA6
  8
DATA
  6
CONTINUOUS
 62
     7
 10
-242.2499999999998
 20
192.1999999999999
 30
0.0
 11
-242.2499999999998
 21
190.1999999999999
 31
0.0
  0
LINE
  5
EA7
  8
DATA
  6
CONTINUOUS
 62
     7
 10
-237.6208
 20
182.012
 30
0.0
 11
-238.119
 21
182.30000000000001
 31
0.0
  0
CIRCLE
  5
EA8
  8
DATA
  6
CONTINUOUS
 62
     7
 10
-223.24999999999989
 20
167.19999999999979
 30
0.0
 40
2.0
  0
LINE
  5
EA9
  8
DATA
  6
CONTINUOUS
 62
     7
 10
-222.25
 20
167.19999999999979
 30
0.0
 11
-224.25
 21
167.19999999999979
 31
0.0
  0
LINE
  5
EAA
  8
DATA
  6
CONTINUOUS
 62
     7
 10
-223.24999999999989
 20
168.1999999999999
 30
0.0
 11
-223.24999999999989
 21
166.1999999999999
 31
0.0
  0
LINE
  5
EAB
  8
DATA
  6
CONTINUOUS
 62
     7
 10
-230.2499999999998
 20
170.7624999999999
 30
0.0
 11
-230.2499999999998
 21
169.72409999999991
 31
0.0
  0
ARC
  5
EAC
  8
DATA
  6
CONTINUOUS
 62
     7
 10
-232.7499999999998
 20
179.1999999999999
 30
0.0
 40
8.8000799002054517
 50
286.50436138175507
 51
80.18584405310186
  0
LINE
  5
EAD
  8
DATA
  6
CONTINUOUS
 62
     7
 10
-231.24999999999989
 20
188.88470000000001
 30
0.0
 11
-231.24999999999989
 21
187.87129999999991
 31
0.0
  0
ARC
  5
EAE
  8
DATA
  6
CONTINUOUS
 62
     7
 10
-232.7499999999998
 20
179.1999999999999
 30
0.0
 40
5.6246231491540364
 50
329.99660734629327
 51
60.002495329294348
  0
ARC
  5
EAF
  8
DATA
  6
CONTINUOUS
 62
     7
 10
-232.7499999999998
 20
179.1999999999999
 30
0.0
 40
2.899513009110299
 50
330.0058526050243
 51
60.003107419061941
  0
LINE
  5
EB0
  8
DATA
  6
CONTINUOUS
 62
     7
 10
-227.8785
 20
176.38740000000001
 30
0.0
 11
-227.38069999999999
 21
176.10039999999981
 31
0.0
  0
LINE
  5
EB1
  8
DATA
  6
CONTINUOUS
 62
     7
 10
-230.23869999999991
 20
177.75040000000001
 30
0.0
 11
-229.63189999999989
 21
177.40000000000001
 31
0.0
  0
LINE
  5
EB2
  8
DATA
  6
CONTINUOUS
 62
     7
 10
-231.30029999999999
 20
181.71119999999991
 30
0.0
 11
-230.94990000000001
 21
182.31800000000001
 31
0.0
  0
LINE
  5
EB3
  8
DATA
  6
CONTINUOUS
 62
     7
 10
-229.93729999999999
 20
184.0712
 30
0.0
 11
-229.6498999999998
 21
184.5689999999999
 31
0.0
  0
CIRCLE
  5
EB4
  8
DATA
  6
CONTINUOUS
 62
     7
 10
-270.74999999999989
 20
179.1999999999999
 30
0.0
 40
11.75
  0
ARC
  5
EB5
  8
DATA
  6
CONTINUOUS
 62
     7
 10
-270.74999999999989
 20
179.1999999999999
 30
0.0
 40
6.1995769992798699
 50
240.00201157424181
 51
330.00329548478823
  0
ARC
  5
EB6
  8
DATA
  6
CONTINUOUS
 62
     7
 10
-270.74999999999989
 20
179.1999999999999
 30
0.0
 40
6.1996037945984748
 50
59.997885911870902
 51
149.9978859118705
  0
ARC
  5
EB7
  8
DATA
  6
CONTINUOUS
 62
     7
 10
-270.74999999999989
 20
179.1999999999999
 30
0.0
 40
3.6001806079695262
 50
60.001659476077172
 51
149.99453367927359
  0
ARC
  5
EB8
  8
DATA
  6
CONTINUOUS
 62
     7
 10
-270.74999999999989
 20
179.1999999999999
 30
0.0
 40
9.8001367750659494
 50
255.22057934059109
 51
284.77942065940869
  0
ARC
  5
EB9
  8
DATA
  6
CONTINUOUS
 62
     7
 10
-270.74999999999989
 20
179.1999999999999
 30
0.0
 40
9.8000753650163368
 50
81.195697341664342
 51
98.804302658335672
  0
ARC
  5
EBA
  8
DATA
  6
CONTINUOUS
 62
     7
 10
-270.74999999999989
 20
179.1999999999999
 30
0.0
 40
3.6002074176358341
 50
239.9945550346539
 51
330.00168078730502
  0
ARC
  5
EBB
  8
DATA
  6
CONTINUOUS
 62
     7
 10
-270.74999999999989
 20
179.1999999999999
 30
0.0
 40
8.8000859410576169
 50
98.804028767499261
 51
253.49565711471871
  0
ARC
  5
EBC
  8
DATA
  6
CONTINUOUS
 62
     7
 10
-270.74999999999989
 20
179.1999999999999
 30
0.0
 40
5.6246195693575753
 50
150.00481996647909
 51
239.99751682417121
  0
LINE
  5
EBD
  8
DATA
  6
CONTINUOUS
 62
     7
 10
-273.5619999999999
 20
174.32900000000001
 30
0.0
 11
-273.8495999999999
 21
173.83080000000001
 31
0.0
  0
LINE
  5
EBE
  8
DATA
  6
CONTINUOUS
 62
     7
 10
-273.26089999999999
 20
180.64999999999981
 30
0.0
 11
-273.86770000000001
 21
181.00040000000001
 31
0.0
  0
LINE
  5
EBF
  8
DATA
  6
CONTINUOUS
 62
     7
 10
-273.24999999999989
 20
170.7624999999999
 30
0.0
 11
-273.24999999999989
 21
169.72409999999991
 31
0.0
  0
LINE
  5
EC0
  8
DATA
  6
CONTINUOUS
 62
     7
 10
-272.24999999999977
 20
188.88470000000001
 30
0.0
 11
-272.24999999999977
 21
187.87129999999991
 31
0.0
  0
ARC
  5
EC1
  8
DATA
  6
CONTINUOUS
 62
     7
 10
-270.74999999999989
 20
179.1999999999999
 30
0.0
 40
2.8995032005500949
 50
149.99433197284711
 51
239.9943319728462
  0
LINE
  5
EC2
  8
DATA
  6
CONTINUOUS
 62
     7
 10
-272.19990000000001
 20
176.68899999999999
 30
0.0
 11
-272.55029999999982
 21
176.0822
 31
0.0
  0
CIRCLE
  5
EC3
  8
DATA
  6
CONTINUOUS
 62
     7
 10
-280.24999999999977
 20
191.1999999999999
 30
0.0
 40
2.0
  0
LINE
  5
EC4
  8
DATA
  6
CONTINUOUS
 62
     7
 10
-279.24999999999989
 20
191.1999999999999
 30
0.0
 11
-281.24999999999989
 21
191.1999999999999
 31
0.0
  0
LINE
  5
EC5
  8
DATA
  6
CONTINUOUS
 62
     7
 10
-280.24999999999977
 20
192.1999999999999
 30
0.0
 11
-280.24999999999977
 21
190.1999999999999
 31
0.0
  0
LINE
  5
EC6
  8
DATA
  6
CONTINUOUS
 62
     7
 10
-275.62079999999992
 20
182.012
 30
0.0
 11
-276.11900000000003
 21
182.30000000000001
 31
0.0
  0
CIRCLE
  5
EC7
  8
DATA
  6
CONTINUOUS
 62
     7
 10
-261.24999999999977
 20
167.19999999999979
 30
0.0
 40
2.0
  0
LINE
  5
EC8
  8
DATA
  6
CONTINUOUS
 62
     7
 10
-260.24999999999977
 20
167.19999999999979
 30
0.0
 11
-262.24999999999977
 21
167.19999999999979
 31
0.0
  0
LINE
  5
EC9
  8
DATA
  6
CONTINUOUS
 62
     7
 10
-261.24999999999977
 20
168.1999999999999
 30
0.0
 11
-261.24999999999977
 21
166.1999999999999
 31
0.0
  0
LINE
  5
ECA
  8
DATA
  6
CONTINUOUS
 62
     7
 10
-268.24999999999977
 20
170.7624999999999
 30
0.0
 11
-268.24999999999977
 21
169.72409999999991
 31
0.0
  0
ARC
  5
ECB
  8
DATA
  6
CONTINUOUS
 62
     7
 10
-270.74999999999989
 20
179.1999999999999
 30
0.0
 40
8.8000799002054517
 50
286.50436138175507
 51
80.18584405310186
  0
LINE
  5
ECC
  8
DATA
  6
CONTINUOUS
 62
     7
 10
-269.24999999999989
 20
188.88470000000001
 30
0.0
 11
-269.24999999999989
 21
187.87129999999991
 31
0.0
  0
ARC
  5
ECD
  8
DATA
  6
CONTINUOUS
 62
     7
 10
-270.74999999999989
 20
179.1999999999999
 30
0.0
 40
5.6246231491540364
 50
329.99660734629327
 51
60.002495329294348
  0
ARC
  5
ECE
  8
DATA
  6
CONTINUOUS
 62
     7
 10
-270.74999999999989
 20
179.1999999999999
 30
0.0
 40
2.899513009110299
 50
330.0058526050243
 51
60.003107419061941
  0
LINE
  5
ECF
  8
DATA
  6
CONTINUOUS
 62
     7
 10
-265.87849999999992
 20
176.38740000000001
 30
0.0
 11
-265.38069999999999
 21
176.10039999999981
 31
0.0
  0
LINE
  5
ED0
  8
DATA
  6
CONTINUOUS
 62
     7
 10
-268.23869999999982
 20
177.75040000000001
 30
0.0
 11
-267.63189999999992
 21
177.40000000000001
 31
0.0
  0
LINE
  5
ED1
  8
DATA
  6
CONTINUOUS
 62
     7
 10
-269.30029999999999
 20
181.71119999999991
 30
0.0
 11
-268.94990000000001
 21
182.31800000000001
 31
0.0
  0
LINE
  5
ED2
  8
DATA
  6
CONTINUOUS
 62
     7
 10
-267.93729999999999
 20
184.0712
 30
0.0
 11
-267.64989999999977
 21
184.5689999999999
 31
0.0
  0
LINE
  5
ED3
  8
DATA
  6
CONTINUOUS
 62
     7
 10
-220.25
 20
129.1999999999999
 30
0.0
 11
-220.25
 21
153.6999999999999
 31
0.0
  0
LINE
  5
ED4
  8
DATA
  6
CONTINUOUS
 62
     7
 10
-281.24999999999989
 20
129.1999999999999
 30
0.0
 11
-281.24999999999989
 21
153.6999999999999
 31
0.0
  0
LINE
  5
ED5
  8
DATA
  6
CONTINUOUS
 62
     7
 10
-281.24999999999989
 20
129.1999999999999
 30
0.0
 11
-220.25
 21
129.1999999999999
 31
0.0
  0
LINE
  5
ED6
  8
DATA
  6
CONTINUOUS
 62
     7
 10
-281.24999999999989
 20
133.19999999999979
 30
0.0
 11
-220.25
 21
133.19999999999979
 31
0.0
  0
LINE
  5
ED7
  8
DATA
  6
CONTINUOUS
 62
     7
 10
-244.7499999999998
 20
137.19999999999979
 30
0.0
 11
-220.25
 21
137.19999999999979
 31
0.0
  0
LINE
  5
ED8
  8
DATA
  6
CONTINUOUS
 62
     7
 10
-281.24999999999989
 20
137.19999999999979
 30
0.0
 11
-256.74999999999989
 21
137.19999999999979
 31
0.0
  0
LINE
  5
ED9
  8
DATA
  6
CONTINUOUS
 62
     7
 10
-244.7499999999998
 20
141.1999999999999
 30
0.0
 11
-220.25
 21
141.1999999999999
 31
0.0
  0
LINE
  5
EDA
  8
DATA
  6
CONTINUOUS
 62
     7
 10
-281.24999999999989
 20
141.1999999999999
 30
0.0
 11
-256.74999999999989
 21
141.1999999999999
 31
0.0
  0
LINE
  5
EDB
  8
DATA
  6
CONTINUOUS
 62
     7
 10
-244.7499999999998
 20
145.1999999999999
 30
0.0
 11
-220.25
 21
145.1999999999999
 31
0.0
  0
LINE
  5
EDC
  8
DATA
  6
CONTINUOUS
 62
     7
 10
-281.24999999999989
 20
145.1999999999999
 30
0.0
 11
-256.74999999999989
 21
145.1999999999999
 31
0.0
  0
LINE
  5
EDD
  8
DATA
  6
CONTINUOUS
 62
     7
 10
-244.7499999999998
 20
149.1999999999999
 30
0.0
 11
-220.25
 21
149.1999999999999
 31
0.0
  0
LINE
  5
EDE
  8
DATA
  6
CONTINUOUS
 62
     7
 10
-281.24999999999989
 20
149.1999999999999
 30
0.0
 11
-256.74999999999989
 21
149.1999999999999
 31
0.0
  0
LINE
  5
EDF
  8
DATA
  6
CONTINUOUS
 62
     7
 10
-281.24999999999989
 20
153.6999999999999
 30
0.0
 11
-256.74999999999989
 21
153.6999999999999
 31
0.0
  0
LINE
  5
EE0
  8
DATA
  6
CONTINUOUS
 62
     7
 10
-244.7499999999998
 20
153.6999999999999
 30
0.0
 11
-220.25
 21
153.6999999999999
 31
0.0
  0
TEXT
  5
EE1
  8
DATA
 62
     7
 10
-239.50521999999981
 20
131.99374399999979
 30
0.0
 40
2.1166640000000001
  1
OUTPUT ASSIGNMENT
 50
180.0
 41
0.75
 11
-239.50521999999981
 21
129.87707999999981
 31
0.0
 73
     3
  0
LINE
  5
EE2
  8
DATA
  6
CONTINUOUS
 62
     7
 10
-244.7499999999998
 20
153.6999999999999
 30
0.0
 11
-244.7499999999998
 21
133.19999999999979
 31
0.0
  0
TEXT
  5
EE3
  8
DATA
 62
     7
 10
-237.1041699999999
 20
136.17083399999979
 30
0.0
 40
2.1166640000000001
  1
CH
 50
180.0
 41
0.75
 11
-237.1041699999999
 21
134.05416999999991
 31
0.0
 73
     3
  0
TEXT
  5
EE4
  8
DATA
 62
     7
 10
-237.1041699999999
 20
140.17083399999979
 30
0.0
 40
2.1166640000000001
  1
2
 50
180.0
 41
0.75
 11
-237.1041699999999
 21
138.05416999999991
 31
0.0
 73
     3
  0
TEXT
  5
EE5
  8
DATA
 62
     7
 10
-237.1041699999999
 20
144.17083400000001
 30
0.0
 40
2.1166640000000001
  1
2
 50
180.0
 41
0.75
 11
-237.1041699999999
 21
142.05417
 31
0.0
 73
     3
  0
TEXT
  5
EE6
  8
DATA
 62
     7
 10
-273.6041699999999
 20
136.17083399999979
 30
0.0
 40
2.1166640000000001
  1
CH
 50
180.0
 41
0.75
 11
-273.6041699999999
 21
134.05416999999991
 31
0.0
 73
     3
  0
TEXT
  5
EE7
  8
DATA
 62
     7
 10
-273.6041699999999
 20
140.17083399999979
 30
0.0
 40
2.1166640000000001
  1
1
 50
180.0
 41
0.75
 11
-273.6041699999999
 21
138.05416999999991
 31
0.0
 73
     3
  0
TEXT
  5
EE8
  8
DATA
 62
     7
 10
-273.6041699999999
 20
144.17083400000001
 30
0.0
 40
2.1166640000000001
  1
1
 50
180.0
 41
0.75
 11
-273.6041699999999
 21
142.05417
 31
0.0
 73
     3
  0
TEXT
  5
EE9
  8
DATA
 62
     7
 10
-273.6041699999999
 20
148.17083400000001
 30
0.0
 40
2.1166640000000001
  1
2
 50
180.0
 41
0.75
 11
-273.6041699999999
 21
146.05417
 31
0.0
 73
     3
  0
TEXT
  5
EEA
  8
DATA
 62
     7
 10
-273.6041699999999
 20
152.17083400000001
 30
0.0
 40
2.1166640000000001
  1
2
 50
180.0
 41
0.75
 11
-273.6041699999999
 21
150.05417
 31
0.0
 73
     3
  0
TEXT
  5
EEB
  8
DATA
 62
     7
 10
-225.24999999999989
 20
136.17083399999979
 30
0.0
 40
2.1166640000000001
  1
PIN
 50
180.0
 41
0.75
 11
-225.24999999999989
 21
134.05416999999991
 31
0.0
 73
     3
  0
TEXT
  5
EEC
  8
DATA
 62
     7
 10
-225.24999999999989
 20
140.17083399999979
 30
0.0
 40
2.1166640000000001
  1
1+
 50
180.0
 41
0.75
 11
-225.24999999999989
 21
138.05416999999991
 31
0.0
 73
     3
  0
TEXT
  5
EED
  8
DATA
 62
     7
 10
-225.24999999999989
 20
144.17083400000001
 30
0.0
 40
2.1166640000000001
  1
1-
 50
180.0
 41
0.75
 11
-225.24999999999989
 21
142.05417
 31
0.0
 73
     3
  0
TEXT
  5
EEE
  8
DATA
 62
     7
 10
-225.24999999999989
 20
148.17083400000001
 30
0.0
 40
2.1166640000000001
  1
2+
 50
180.0
 41
0.75
 11
-225.24999999999989
 21
146.05417
 31
0.0
 73
     3
  0
TEXT
  5
EEF
  8
DATA
 62
     7
 10
-225.24999999999989
 20
152.17083400000001
 30
0.0
 40
2.1166640000000001
  1
2-
 50
180.0
 41
0.75
 11
-225.24999999999989
 21
150.05417
 31
0.0
 73
     3
  0
TEXT
  5
EF0
  8
DATA
 62
     7
 10
-261.74999999999977
 20
136.17083399999979
 30
0.0
 40
2.1166640000000001
  1
PIN
 50
180.0
 41
0.75
 11
-261.74999999999977
 21
134.05416999999991
 31
0.0
 73
     3
  0
TEXT
  5
EF1
  8
DATA
 62
     7
 10
-261.74999999999977
 20
140.17083399999979
 30
0.0
 40
2.1166640000000001
  1
1+
 50
180.0
 41
0.75
 11
-261.74999999999977
 21
138.05416999999991
 31
0.0
 73
     3
  0
TEXT
  5
EF2
  8
DATA
 62
     7
 10
-261.74999999999977
 20
144.17083400000001
 30
0.0
 40
2.1166640000000001
  1
1-
 50
180.0
 41
0.75
 11
-261.74999999999977
 21
142.05417
 31
0.0
 73
     3
  0
TEXT
  5
EF3
  8
DATA
 62
     7
 10
-261.74999999999977
 20
148.17083400000001
 30
0.0
 40
2.1166640000000001
  1
2+
 50
180.0
 41
0.75
 11
-261.74999999999977
 21
146.05417
 31
0.0
 73
     3
  0
TEXT
  5
EF4
  8
DATA
 62
     7
 10
-261.74999999999977
 20
152.17083400000001
 30
0.0
 40
2.1166640000000001
  1
2-
 50
180.0
 41
0.75
 11
-261.74999999999977
 21
150.05417
 31
0.0
 73
     3
  0
LINE
  5
EF5
  8
DATA
  6
CONTINUOUS
 62
     7
 10
-256.74999999999989
 20
153.6999999999999
 30
0.0
 11
-256.74999999999989
 21
133.19999999999979
 31
0.0
  0
LINE
  5
EF6
  8
DATA
  6
CONTINUOUS
 62
     7
 10
-244.7499999999998
 20
155.1999999999999
 30
0.0
 11
-244.7499999999998
 21
160.69999999999999
 31
0.0
  0
LINE
  5
EF7
  8
DATA
  6
CONTINUOUS
 62
     7
 10
-220.25
 20
155.1999999999999
 30
0.0
 11
-244.7499999999998
 21
155.1999999999999
 31
0.0
  0
LINE
  5
EF8
  8
DATA
  6
CONTINUOUS
 62
     7
 10
-220.25
 20
160.69999999999999
 30
0.0
 11
-220.25
 21
155.1999999999999
 31
0.0
  0
LINE
  5
EF9
  8
DATA
  6
CONTINUOUS
 62
     7
 10
-244.7499999999998
 20
160.69999999999999
 30
0.0
 11
-220.25
 21
160.69999999999999
 31
0.0
  0
LINE
  5
EFA
  8
DATA
  6
CONTINUOUS
 62
     7
 10
-281.24999999999989
 20
155.1999999999999
 30
0.0
 11
-281.24999999999989
 21
160.69999999999999
 31
0.0
  0
LINE
  5
EFB
  8
DATA
  6
CONTINUOUS
 62
     7
 10
-256.74999999999989
 20
155.1999999999999
 30
0.0
 11
-281.24999999999989
 21
155.1999999999999
 31
0.0
  0
LINE
  5
EFC
  8
DATA
  6
CONTINUOUS
 62
     7
 10
-256.74999999999989
 20
160.69999999999999
 30
0.0
 11
-256.74999999999989
 21
155.1999999999999
 31
0.0
  0
LINE
  5
EFD
  8
DATA
  6
CONTINUOUS
 62
     7
 10
-281.24999999999989
 20
160.69999999999999
 30
0.0
 11
-256.74999999999989
 21
160.69999999999999
 31
0.0
  0
TEXT
  5
EFE
  8
DATA
 62
     7
 10
-228.5312499999998
 20
159.537496
 30
0.0
 40
4.2333360000000004
  1
CH2
 50
180.0
 41
0.75
 11
-228.5312499999998
 21
155.30416
 31
0.0
 73
     3
  0
TEXT
  5
EFF
  8
DATA
 62
     7
 10
-265.03124999999977
 20
159.537496
 30
0.0
 40
4.2333360000000004
  1
CH1
 50
180.0
 41
0.75
 11
-265.03124999999977
 21
155.30416
 31
0.0
 73
     3
  0
ARC
  5
F00
  8
DATA
  6
CONTINUOUS
 62
     7
 10
-374.25
 20
97.200000000000003
 30
0.0
 40
2.0
 50
270.0
 51
0.0
  0
LINE
  5
F01
  8
DATA
  6
CONTINUOUS
 62
     7
 10
-374.25
 20
95.200000000000017
 30
0.0
 11
-400.25
 21
95.200000000000017
 31
0.0
  0
ARC
  5
F02
  8
DATA
  6
CONTINUOUS
 62
     7
 10
-400.25
 20
97.200000000000003
 30
0.0
 40
2.0
 50
180.0
 51
270.0
  0
LINE
  5
F03
  8
DATA
  6
CONTINUOUS
 62
     7
 10
-402.24999999999989
 20
116.2
 30
0.0
 11
-402.24999999999989
 21
97.200000000000003
 31
0.0
  0
ARC
  5
F04
  8
DATA
  6
CONTINUOUS
 62
     7
 10
-400.25
 20
116.2
 30
0.0
 40
2.0
 50
90.0
 51
180.0
  0
LINE
  5
F05
  8
DATA
  6
CONTINUOUS
 62
     7
 10
-372.25
 20
116.2
 30
0.0
 11
-372.25
 21
97.200000000000003
 31
0.0
  0
LINE
  5
F06
  8
DATA
  6
CONTINUOUS
 62
     7
 10
-374.25
 20
118.2
 30
0.0
 11
-400.25
 21
118.2
 31
0.0
  0
ARC
  5
F07
  8
DATA
  6
CONTINUOUS
 62
     7
 10
-374.25
 20
116.2
 30
0.0
 40
2.0
 50
0.0
 51
90.0
  0
ARC
  5
F08
  8
DATA
  6
CONTINUOUS
 62
     7
 10
-377.24999999999989
 20
100.7
 30
0.0
 40
2.0
 50
270.0
 51
0.0
  0
LINE
  5
F09
  8
DATA
  6
CONTINUOUS
 62
     7
 10
-377.24999999999989
 20
98.700000000000003
 30
0.0
 11
-397.25
 21
98.700000000000003
 31
0.0
  0
ARC
  5
F0A
  8
DATA
  6
CONTINUOUS
 62
     7
 10
-397.25
 20
100.7
 30
0.0
 40
2.0
 50
180.0
 51
270.0
  0
LINE
  5
F0B
  8
DATA
  6
CONTINUOUS
 62
     7
 10
-379.74999999999989
 20
114.7
 30
0.0
 11
-394.75
 21
114.7
 31
0.0
  0
LINE
  5
F0C
  8
DATA
  6
CONTINUOUS
 62
     7
 10
-375.24999999999989
 20
110.6999999999999
 30
0.0
 11
-375.24999999999989
 21
100.7
 31
0.0
  0
LINE
  5
F0D
  8
DATA
  6
CONTINUOUS
 62
     7
 10
-399.25
 20
110.6999999999999
 30
0.0
 11
-399.25
 21
100.7
 31
0.0
  0
LINE
  5
F0E
  8
DATA
  6
CONTINUOUS
 62
     7
 10
-375.24999999999989
 20
110.6999999999999
 30
0.0
 11
-379.74999999999989
 21
114.7
 31
0.0
  0
LINE
  5
F0F
  8
DATA
  6
CONTINUOUS
 62
     7
 10
-394.75
 20
114.7
 30
0.0
 11
-399.25
 21
110.6999999999999
 31
0.0
  0
LINE
  5
F10
  8
DATA
  6
CONTINUOUS
 62
     7
 10
-381.3057
 20
102.02539999999991
 30
0.0
 11
-381.3057
 21
105.8216
 31
0.0
  0
LINE
  5
F11
  8
DATA
  6
CONTINUOUS
 62
     7
 10
-382.63470000000001
 20
105.8216
 30
0.0
 11
-382.63470000000001
 21
102.02539999999991
 31
0.0
  0
LINE
  5
F12
  8
DATA
  6
CONTINUOUS
 62
     7
 10
-391.86509999999998
 20
102.02539999999991
 30
0.0
 11
-391.86509999999998
 21
105.8216
 31
0.0
  0
LINE
  5
F13
  8
DATA
  6
CONTINUOUS
 62
     7
 10
-393.19409999999988
 20
105.8216
 30
0.0
 11
-393.19409999999988
 21
102.02539999999991
 31
0.0
  0
LINE
  5
F14
  8
DATA
  6
CONTINUOUS
 62
     7
 10
-381.3057
 20
102.02539999999991
 30
0.0
 11
-382.63470000000001
 21
102.02539999999991
 31
0.0
  0
LINE
  5
F15
  8
DATA
  6
CONTINUOUS
 62
     7
 10
-391.86509999999998
 20
102.02539999999991
 30
0.0
 11
-393.19409999999988
 21
102.02539999999991
 31
0.0
  0
LINE
  5
F16
  8
DATA
  6
CONTINUOUS
 62
     7
 10
-391.86509999999998
 20
105.8216
 30
0.0
 11
-393.19409999999988
 21
105.8216
 31
0.0
  0
LINE
  5
F17
  8
DATA
  6
CONTINUOUS
 62
     7
 10
-381.3057
 20
105.8216
 30
0.0
 11
-382.63470000000001
 21
105.8216
 31
0.0
  0
LINE
  5
F18
  8
DATA
  6
CONTINUOUS
 62
     7
 10
-386.41919999999988
 20
107.30710000000001
 30
0.0
 11
-386.41919999999988
 21
111.6459
 31
0.0
  0
LINE
  5
F19
  8
DATA
  6
CONTINUOUS
 62
     7
 10
-386.41919999999988
 20
107.30719999999999
 30
0.0
 11
-388.08080000000001
 21
107.30719999999999
 31
0.0
  0
LINE
  5
F1A
  8
DATA
  6
CONTINUOUS
 62
     7
 10
-388.08080000000001
 20
111.6459
 30
0.0
 11
-388.08080000000001
 21
107.30710000000001
 31
0.0
  0
LINE
  5
F1B
  8
DATA
  6
CONTINUOUS
 62
     7
 10
-386.41919999999988
 20
111.6459
 30
0.0
 11
-388.08080000000001
 21
111.6459
 31
0.0
  0
LINE
  5
F1C
  8
DATA
  6
CONTINUOUS
 62
     7
 10
-400.19999999999987
 20
-563.84999999999957
 30
0.0
 11
-400.19999999999987
 21
-549.84999999999991
 31
0.0
  0
LINE
  5
F1D
  8
DATA
  6
CONTINUOUS
 62
     7
 10
-370.19999999999987
 20
-563.84999999999957
 30
0.0
 11
-400.19999999999987
 21
-563.84999999999957
 31
0.0
  0
LINE
  5
F1E
  8
DATA
  6
CONTINUOUS
 62
     7
 10
-370.19999999999987
 20
-549.84999999999991
 30
0.0
 11
-370.19999999999987
 21
-563.84999999999957
 31
0.0
  0
LINE
  5
F1F
  8
DATA
  6
CONTINUOUS
 62
     7
 10
-400.19999999999987
 20
-549.84999999999991
 30
0.0
 11
-370.19999999999987
 21
-549.84999999999991
 31
0.0
  0
LINE
  5
F20
  8
DATA
  6
CONTINUOUS
 62
     7
 10
-396.69999999999987
 20
-561.09999999999968
 30
0.0
 11
-396.69999999999987
 21
-552.5999999999998
 31
0.0
  0
LINE
  5
F21
  8
DATA
  6
CONTINUOUS
 62
     7
 10
-373.69999999999987
 20
-561.09999999999968
 30
0.0
 11
-396.69999999999987
 21
-561.09999999999968
 31
0.0
  0
LINE
  5
F22
  8
DATA
  6
CONTINUOUS
 62
     7
 10
-373.69999999999987
 20
-552.5999999999998
 30
0.0
 11
-373.69999999999987
 21
-561.09999999999968
 31
0.0
  0
LINE
  5
F23
  8
DATA
  6
CONTINUOUS
 62
     7
 10
-396.69999999999987
 20
-552.5999999999998
 30
0.0
 11
-373.69999999999987
 21
-552.5999999999998
 31
0.0
  0
LINE
  5
F24
  8
DATA
  6
CONTINUOUS
 62
     7
 10
-378.69999999999987
 20
-552.5999999999998
 30
0.0
 11
-378.69999999999987
 21
-561.09999999999968
 31
0.0
  0
LINE
  5
F25
  8
DATA
  6
CONTINUOUS
 62
     7
 10
-319.5499999999999
 20
-460.14999999999992
 30
0.0
 11
-288.99999999999977
 21
-460.14999999999992
 31
0.0
  0
LINE
  5
F26
  8
DATA
  6
CONTINUOUS
 62
     7
 10
-319.5499999999999
 20
-466.55000000000001
 30
0.0
 11
-288.99999999999977
 21
-466.55000000000001
 31
0.0
  0
ARC
  5
F27
  8
DATA
  6
CONTINUOUS
 62
     7
 10
-319.5499999999999
 20
-463.3499999999998
 30
0.0
 40
3.19999999999993
 50
90.0
 51
270.0
  0
LINE
  5
F28
  8
DATA
  6
CONTINUOUS
 62
     7
 10
-319.5499999999999
 20
-469.14999999999992
 30
0.0
 11
-288.99999999999977
 21
-469.14999999999992
 31
0.0
  0
LINE
  5
F29
  8
DATA
  6
CONTINUOUS
 62
     7
 10
-319.5499999999999
 20
-475.55000000000001
 30
0.0
 11
-288.99999999999977
 21
-475.55000000000001
 31
0.0
  0
ARC
  5
F2A
  8
DATA
  6
CONTINUOUS
 62
     7
 10
-319.5499999999999
 20
-472.34999999999991
 30
0.0
 40
3.19999999999993
 50
90.0
 51
270.0
  0
LINE
  5
F2B
  8
DATA
  6
CONTINUOUS
 62
     7
 10
-319.5499999999999
 20
-478.14999999999998
 30
0.0
 11
-288.99999999999977
 21
-478.14999999999998
 31
0.0
  0
LINE
  5
F2C
  8
DATA
  6
CONTINUOUS
 62
     7
 10
-319.5499999999999
 20
-484.55000000000001
 30
0.0
 11
-288.99999999999977
 21
-484.55000000000001
 31
0.0
  0
ARC
  5
F2D
  8
DATA
  6
CONTINUOUS
 62
     7
 10
-319.5499999999999
 20
-481.34999999999991
 30
0.0
 40
3.19999999999993
 50
90.0
 51
270.0
  0
LINE
  5
F2E
  8
DATA
  6
CONTINUOUS
 62
     7
 10
-319.5499999999999
 20
-487.14999999999998
 30
0.0
 11
-288.99999999999977
 21
-487.14999999999998
 31
0.0
  0
LINE
  5
F2F
  8
DATA
  6
CONTINUOUS
 62
     7
 10
-319.5499999999999
 20
-493.55000000000001
 30
0.0
 11
-288.99999999999977
 21
-493.55000000000001
 31
0.0
  0
ARC
  5
F30
  8
DATA
  6
CONTINUOUS
 62
     7
 10
-319.5499999999999
 20
-490.34999999999991
 30
0.0
 40
3.19999999999993
 50
90.0
 51
270.0
  0
LINE
  5
F31
  8
DATA
  6
CONTINUOUS
 62
     7
 10
-319.5499999999999
 20
-496.14999999999998
 30
0.0
 11
-288.99999999999977
 21
-496.14999999999998
 31
0.0
  0
LINE
  5
F32
  8
DATA
  6
CONTINUOUS
 62
     7
 10
-319.5499999999999
 20
-502.55000000000001
 30
0.0
 11
-288.99999999999977
 21
-502.55000000000001
 31
0.0
  0
ARC
  5
F33
  8
DATA
  6
CONTINUOUS
 62
     7
 10
-319.5499999999999
 20
-499.34999999999991
 30
0.0
 40
3.19999999999993
 50
90.0
 51
270.0
  0
LINE
  5
F34
  8
DATA
  6
CONTINUOUS
 62
     7
 10
-319.5499999999999
 20
-505.14999999999981
 30
0.0
 11
-288.99999999999977
 21
-505.14999999999981
 31
0.0
  0
LINE
  5
F35
  8
DATA
  6
CONTINUOUS
 62
     7
 10
-319.5499999999999
 20
-511.54999999999978
 30
0.0
 11
-288.99999999999977
 21
-511.54999999999978
 31
0.0
  0
ARC
  5
F36
  8
DATA
  6
CONTINUOUS
 62
     7
 10
-319.5499999999999
 20
-508.34999999999991
 30
0.0
 40
3.19999999999993
 50
90.0
 51
270.0
  0
LINE
  5
F37
  8
DATA
  6
CONTINUOUS
 62
     7
 10
-319.5499999999999
 20
-514.14999999999986
 30
0.0
 11
-288.99999999999977
 21
-514.14999999999986
 31
0.0
  0
LINE
  5
F38
  8
DATA
  6
CONTINUOUS
 62
     7
 10
-319.5499999999999
 20
-520.54999999999995
 30
0.0
 11
-288.99999999999977
 21
-520.54999999999995
 31
0.0
  0
ARC
  5
F39
  8
DATA
  6
CONTINUOUS
 62
     7
 10
-319.5499999999999
 20
-517.34999999999968
 30
0.0
 40
3.19999999999993
 50
90.0
 51
270.0
  0
LINE
  5
F3A
  8
DATA
  6
CONTINUOUS
 62
     7
 10
-319.5499999999999
 20
-523.14999999999986
 30
0.0
 11
-288.99999999999977
 21
-523.14999999999986
 31
0.0
  0
LINE
  5
F3B
  8
DATA
  6
CONTINUOUS
 62
     7
 10
-319.5499999999999
 20
-529.54999999999995
 30
0.0
 11
-288.99999999999977
 21
-529.54999999999995
 31
0.0
  0
ARC
  5
F3C
  8
DATA
  6
CONTINUOUS
 62
     7
 10
-319.5499999999999
 20
-526.34999999999991
 30
0.0
 40
3.19999999999993
 50
90.0
 51
270.0
  0
LINE
  5
F3D
  8
DATA
  6
CONTINUOUS
 62
     7
 10
-172.0
 20
-484.84999999999991
 30
0.0
 11
-244.4999999999998
 21
-484.84999999999991
 31
0.0
  0
LINE
  5
F3E
  8
DATA
  6
CONTINUOUS
 62
     7
 10
-96.950000000000003
 20
-460.14999999999992
 30
0.0
 11
-127.5
 21
-460.14999999999992
 31
0.0
  0
LINE
  5
F3F
  8
DATA
  6
CONTINUOUS
 62
     7
 10
-96.950000000000003
 20
-466.55000000000001
 30
0.0
 11
-127.5
 21
-466.55000000000001
 31
0.0
  0
ARC
  5
F40
  8
DATA
  6
CONTINUOUS
 62
     7
 10
-96.950000000000003
 20
-463.3499999999998
 30
0.0
 40
3.2000000000000441
 50
270.0
 51
90.0
  0
LINE
  5
F41
  8
DATA
  6
CONTINUOUS
 62
     7
 10
-96.950000000000003
 20
-469.14999999999992
 30
0.0
 11
-127.5
 21
-469.14999999999992
 31
0.0
  0
LINE
  5
F42
  8
DATA
  6
CONTINUOUS
 62
     7
 10
-96.950000000000003
 20
-475.55000000000001
 30
0.0
 11
-127.5
 21
-475.55000000000001
 31
0.0
  0
ARC
  5
F43
  8
DATA
  6
CONTINUOUS
 62
     7
 10
-96.950000000000003
 20
-472.34999999999991
 30
0.0
 40
3.2000000000000441
 50
270.0
 51
90.0
  0
LINE
  5
F44
  8
DATA
  6
CONTINUOUS
 62
     7
 10
-96.950000000000003
 20
-478.14999999999998
 30
0.0
 11
-127.5
 21
-478.14999999999998
 31
0.0
  0
LINE
  5
F45
  8
DATA
  6
CONTINUOUS
 62
     7
 10
-96.950000000000003
 20
-484.55000000000001
 30
0.0
 11
-127.5
 21
-484.55000000000001
 31
0.0
  0
ARC
  5
F46
  8
DATA
  6
CONTINUOUS
 62
     7
 10
-96.950000000000003
 20
-481.34999999999991
 30
0.0
 40
3.2000000000000441
 50
270.0
 51
90.0
  0
LINE
  5
F47
  8
DATA
  6
CONTINUOUS
 62
     7
 10
-96.950000000000003
 20
-487.14999999999998
 30
0.0
 11
-127.5
 21
-487.14999999999998
 31
0.0
  0
LINE
  5
F48
  8
DATA
  6
CONTINUOUS
 62
     7
 10
-96.950000000000003
 20
-493.55000000000001
 30
0.0
 11
-127.5
 21
-493.55000000000001
 31
0.0
  0
ARC
  5
F49
  8
DATA
  6
CONTINUOUS
 62
     7
 10
-96.950000000000003
 20
-490.34999999999991
 30
0.0
 40
3.2000000000000441
 50
270.0
 51
90.0
  0
LINE
  5
F4A
  8
DATA
  6
CONTINUOUS
 62
     7
 10
-96.950000000000003
 20
-496.14999999999998
 30
0.0
 11
-127.5
 21
-496.14999999999998
 31
0.0
  0
LINE
  5
F4B
  8
DATA
  6
CONTINUOUS
 62
     7
 10
-96.950000000000003
 20
-502.55000000000001
 30
0.0
 11
-127.5
 21
-502.55000000000001
 31
0.0
  0
ARC
  5
F4C
  8
DATA
  6
CONTINUOUS
 62
     7
 10
-96.950000000000003
 20
-499.34999999999991
 30
0.0
 40
3.2000000000000441
 50
270.0
 51
90.0
  0
LINE
  5
F4D
  8
DATA
  6
CONTINUOUS
 62
     7
 10
-96.950000000000003
 20
-505.14999999999981
 30
0.0
 11
-127.5
 21
-505.14999999999981
 31
0.0
  0
LINE
  5
F4E
  8
DATA
  6
CONTINUOUS
 62
     7
 10
-96.950000000000003
 20
-511.54999999999978
 30
0.0
 11
-127.5
 21
-511.54999999999978
 31
0.0
  0
ARC
  5
F4F
  8
DATA
  6
CONTINUOUS
 62
     7
 10
-96.950000000000003
 20
-508.34999999999991
 30
0.0
 40
3.2000000000000441
 50
270.0
 51
90.0
  0
LINE
  5
F50
  8
DATA
  6
CONTINUOUS
 62
     7
 10
-96.950000000000003
 20
-514.14999999999986
 30
0.0
 11
-127.5
 21
-514.14999999999986
 31
0.0
  0
LINE
  5
F51
  8
DATA
  6
CONTINUOUS
 62
     7
 10
-96.950000000000003
 20
-520.54999999999995
 30
0.0
 11
-127.5
 21
-520.54999999999995
 31
0.0
  0
ARC
  5
F52
  8
DATA
  6
CONTINUOUS
 62
     7
 10
-96.950000000000003
 20
-517.34999999999968
 30
0.0
 40
3.2000000000000441
 50
270.0
 51
90.0
  0
LINE
  5
F53
  8
DATA
  6
CONTINUOUS
 62
     7
 10
-96.950000000000003
 20
-523.14999999999986
 30
0.0
 11
-127.5
 21
-523.14999999999986
 31
0.0
  0
LINE
  5
F54
  8
DATA
  6
CONTINUOUS
 62
     7
 10
-96.950000000000003
 20
-529.54999999999995
 30
0.0
 11
-127.5
 21
-529.54999999999995
 31
0.0
  0
ARC
  5
F55
  8
DATA
  6
CONTINUOUS
 62
     7
 10
-96.950000000000003
 20
-526.34999999999991
 30
0.0
 40
3.2000000000000441
 50
270.0
 51
90.0
  0
LINE
  5
F56
  8
DATA
  6
CONTINUOUS
 62
     7
 10
-172.0
 20
-491.25
 30
0.0
 11
-244.4999999999998
 21
-491.25
 31
0.0
  0
LINE
  5
F57
  8
DATA
  6
CONTINUOUS
 62
     7
 10
-172.0
 20
-493.84999999999991
 30
0.0
 11
-244.4999999999998
 21
-493.84999999999991
 31
0.0
  0
LINE
  5
F58
  8
DATA
  6
CONTINUOUS
 62
     7
 10
-172.0
 20
-500.25
 30
0.0
 11
-244.4999999999998
 21
-500.25
 31
0.0
  0
LINE
  5
F59
  8
DATA
  6
CONTINUOUS
 62
     7
 10
-172.0
 20
-502.84999999999991
 30
0.0
 11
-244.4999999999998
 21
-502.84999999999991
 31
0.0
  0
LINE
  5
F5A
  8
DATA
  6
CONTINUOUS
 62
     7
 10
-172.0
 20
-509.24999999999989
 30
0.0
 11
-244.4999999999998
 21
-509.24999999999989
 31
0.0
  0
LINE
  5
F5B
  8
DATA
  6
CONTINUOUS
 62
     7
 10
-172.0
 20
-511.84999999999991
 30
0.0
 11
-244.4999999999998
 21
-511.84999999999991
 31
0.0
  0
LINE
  5
F5C
  8
DATA
  6
CONTINUOUS
 62
     7
 10
-172.0
 20
-518.24999999999989
 30
0.0
 11
-244.4999999999998
 21
-518.24999999999989
 31
0.0
  0
LINE
  5
F5D
  8
DATA
  6
CONTINUOUS
 62
     7
 10
-172.0
 20
-520.84999999999991
 30
0.0
 11
-244.4999999999998
 21
-520.84999999999991
 31
0.0
  0
LINE
  5
F5E
  8
DATA
  6
CONTINUOUS
 62
     7
 10
-172.0
 20
-527.24999999999989
 30
0.0
 11
-244.4999999999998
 21
-527.24999999999989
 31
0.0
  0
LINE
  5
F5F
  8
DATA
  6
CONTINUOUS
 62
     7
 10
-172.0
 20
-529.84999999999968
 30
0.0
 11
-244.4999999999998
 21
-529.84999999999968
 31
0.0
  0
LINE
  5
F60
  8
DATA
  6
CONTINUOUS
 62
     7
 10
-172.0
 20
-536.24999999999977
 30
0.0
 11
-244.4999999999998
 21
-536.24999999999977
 31
0.0
  0
LINE
  5
F61
  8
DATA
  6
CONTINUOUS
 62
     7
 10
-172.0
 20
-538.84999999999991
 30
0.0
 11
-244.4999999999998
 21
-538.84999999999991
 31
0.0
  0
LINE
  5
F62
  8
DATA
  6
CONTINUOUS
 62
     7
 10
-172.0
 20
-545.24999999999966
 30
0.0
 11
-244.4999999999998
 21
-545.24999999999966
 31
0.0
  0
LINE
  5
F63
  8
DATA
  6
CONTINUOUS
 62
     7
 10
-172.0
 20
-547.84999999999991
 30
0.0
 11
-244.4999999999998
 21
-547.84999999999991
 31
0.0
  0
LINE
  5
F64
  8
DATA
  6
CONTINUOUS
 62
     7
 10
-172.0
 20
-554.24999999999966
 30
0.0
 11
-244.4999999999998
 21
-554.24999999999966
 31
0.0
  0
LINE
  5
F65
  8
DATA
  6
CONTINUOUS
 62
     7
 10
-270.94144999999992
 20
-470.17349999999999
 30
0.0
 11
-288.99999999999977
 21
-460.14999999999992
 31
0.0
  0
LINE
  5
F66
  8
DATA
  6
CONTINUOUS
 62
     7
 10
-244.4999999999998
 20
-484.84999999999991
 30
0.0
 11
-261.33202999999992
 21
-475.50727000000001
 31
0.0
  0
LINE
  5
F67
  8
DATA
  6
CONTINUOUS
 62
     7
 10
-273.65435000000002
 20
-475.0677
 30
0.0
 11
-288.99999999999977
 21
-466.55000000000001
 31
0.0
  0
LINE
  5
F68
  8
DATA
  6
CONTINUOUS
 62
     7
 10
-244.4999999999998
 20
-491.25
 30
0.0
 11
-264.04493000000002
 21
-480.40146999999968
 31
0.0
  0
ARC
  5
F69
  8
DATA
  6
CONTINUOUS
 62
     7
 10
-262.70209999999992
 20
-477.97894000000002
 30
0.0
 40
2.79790189472395
 50
60.999994265215697
 51
240.99999426521569
  0
ARC
  5
F6A
  8
DATA
  6
CONTINUOUS
 62
     7
 10
-272.29790000000003
 20
-472.62060000000002
 30
0.0
 40
2.79790189472395
 50
240.99999426521569
 51
60.999994265215719
  0
LINE
  5
F6B
  8
DATA
  6
CONTINUOUS
 62
     7
 10
-270.94144999999992
 20
-479.17349999999999
 30
0.0
 11
-288.99999999999977
 21
-469.14999999999992
 31
0.0
  0
LINE
  5
F6C
  8
DATA
  6
CONTINUOUS
 62
     7
 10
-244.4999999999998
 20
-493.84999999999991
 30
0.0
 11
-261.33202999999992
 21
-484.50727000000001
 31
0.0
  0
LINE
  5
F6D
  8
DATA
  6
CONTINUOUS
 62
     7
 10
-273.65435000000002
 20
-484.0677
 30
0.0
 11
-288.99999999999977
 21
-475.55000000000001
 31
0.0
  0
LINE
  5
F6E
  8
DATA
  6
CONTINUOUS
 62
     7
 10
-244.4999999999998
 20
-500.25
 30
0.0
 11
-264.04493000000002
 21
-489.40146999999968
 31
0.0
  0
ARC
  5
F6F
  8
DATA
  6
CONTINUOUS
 62
     7
 10
-262.70209999999992
 20
-486.97894000000002
 30
0.0
 40
2.79790189472395
 50
60.999994265215697
 51
240.99999426521569
  0
ARC
  5
F70
  8
DATA
  6
CONTINUOUS
 62
     7
 10
-272.29790000000003
 20
-481.62060000000002
 30
0.0
 40
2.79790189472395
 50
240.99999426521569
 51
60.999994265215719
  0
LINE
  5
F71
  8
DATA
  6
CONTINUOUS
 62
     7
 10
-270.94144999999992
 20
-488.17349999999988
 30
0.0
 11
-288.99999999999977
 21
-478.14999999999998
 31
0.0
  0
LINE
  5
F72
  8
DATA
  6
CONTINUOUS
 62
     7
 10
-244.4999999999998
 20
-502.84999999999991
 30
0.0
 11
-261.33202999999992
 21
-493.50727000000001
 31
0.0
  0
LINE
  5
F73
  8
DATA
  6
CONTINUOUS
 62
     7
 10
-273.65435000000002
 20
-493.0677
 30
0.0
 11
-288.99999999999977
 21
-484.55000000000001
 31
0.0
  0
LINE
  5
F74
  8
DATA
  6
CONTINUOUS
 62
     7
 10
-244.4999999999998
 20
-509.24999999999989
 30
0.0
 11
-264.04493000000002
 21
-498.40146999999968
 31
0.0
  0
ARC
  5
F75
  8
DATA
  6
CONTINUOUS
 62
     7
 10
-262.70209999999992
 20
-495.97894000000002
 30
0.0
 40
2.79790189472395
 50
60.999994265215697
 51
240.99999426521569
  0
ARC
  5
F76
  8
DATA
  6
CONTINUOUS
 62
     7
 10
-272.29790000000003
 20
-490.62060000000002
 30
0.0
 40
2.79790189472395
 50
240.99999426521569
 51
60.999994265215719
  0
LINE
  5
F77
  8
DATA
  6
CONTINUOUS
 62
     7
 10
-270.94144999999992
 20
-497.17349999999988
 30
0.0
 11
-288.99999999999977
 21
-487.14999999999998
 31
0.0
  0
LINE
  5
F78
  8
DATA
  6
CONTINUOUS
 62
     7
 10
-244.4999999999998
 20
-511.84999999999991
 30
0.0
 11
-261.33202999999992
 21
-502.50726999999989
 31
0.0
  0
LINE
  5
F79
  8
DATA
  6
CONTINUOUS
 62
     7
 10
-273.65435000000002
 20
-502.0677
 30
0.0
 11
-288.99999999999977
 21
-493.55000000000001
 31
0.0
  0
LINE
  5
F7A
  8
DATA
  6
CONTINUOUS
 62
     7
 10
-244.4999999999998
 20
-518.24999999999989
 30
0.0
 11
-264.04493000000002
 21
-507.40146999999979
 31
0.0
  0
ARC
  5
F7B
  8
DATA
  6
CONTINUOUS
 62
     7
 10
-262.70209999999992
 20
-504.97894000000002
 30
0.0
 40
2.79790189472395
 50
60.999994265215697
 51
240.99999426521569
  0
ARC
  5
F7C
  8
DATA
  6
CONTINUOUS
 62
     7
 10
-272.29790000000003
 20
-499.62059999999991
 30
0.0
 40
2.79790189472395
 50
240.99999426521569
 51
60.999994265215719
  0
LINE
  5
F7D
  8
DATA
  6
CONTINUOUS
 62
     7
 10
-270.94144999999992
 20
-506.17349999999988
 30
0.0
 11
-288.99999999999977
 21
-496.14999999999998
 31
0.0
  0
LINE
  5
F7E
  8
DATA
  6
CONTINUOUS
 62
     7
 10
-244.4999999999998
 20
-520.84999999999991
 30
0.0
 11
-261.33202999999992
 21
-511.50726999999989
 31
0.0
  0
LINE
  5
F7F
  8
DATA
  6
CONTINUOUS
 62
     7
 10
-273.65435000000002
 20
-511.06769999999989
 30
0.0
 11
-288.99999999999977
 21
-502.55000000000001
 31
0.0
  0
LINE
  5
F80
  8
DATA
  6
CONTINUOUS
 62
     7
 10
-244.4999999999998
 20
-527.24999999999989
 30
0.0
 11
-264.04493000000002
 21
-516.4014699999999
 31
0.0
  0
ARC
  5
F81
  8
DATA
  6
CONTINUOUS
 62
     7
 10
-262.70209999999992
 20
-513.97893999999985
 30
0.0
 40
2.79790189472395
 50
60.999994265215697
 51
240.99999426521569
  0
ARC
  5
F82
  8
DATA
  6
CONTINUOUS
 62
     7
 10
-272.29790000000003
 20
-508.62060000000002
 30
0.0
 40
2.79790189472395
 50
240.99999426521569
 51
60.999994265215719
  0
LINE
  5
F83
  8
DATA
  6
CONTINUOUS
 62
     7
 10
-270.94144999999992
 20
-515.17349999999999
 30
0.0
 11
-288.99999999999977
 21
-505.14999999999981
 31
0.0
  0
LINE
  5
F84
  8
DATA
  6
CONTINUOUS
 62
     7
 10
-244.4999999999998
 20
-529.84999999999968
 30
0.0
 11
-261.33202999999992
 21
-520.50726999999995
 31
0.0
  0
LINE
  5
F85
  8
DATA
  6
CONTINUOUS
 62
     7
 10
-273.65435000000002
 20
-520.06769999999995
 30
0.0
 11
-288.99999999999977
 21
-511.54999999999978
 31
0.0
  0
LINE
  5
F86
  8
DATA
  6
CONTINUOUS
 62
     7
 10
-244.4999999999998
 20
-536.24999999999977
 30
0.0
 11
-264.04493000000002
 21
-525.4014699999999
 31
0.0
  0
ARC
  5
F87
  8
DATA
  6
CONTINUOUS
 62
     7
 10
-262.70209999999992
 20
-522.97893999999985
 30
0.0
 40
2.79790189472395
 50
60.999994265215697
 51
240.99999426521569
  0
ARC
  5
F88
  8
DATA
  6
CONTINUOUS
 62
     7
 10
-272.29790000000003
 20
-517.62059999999985
 30
0.0
 40
2.79790189472395
 50
240.99999426521569
 51
60.999994265215719
  0
LINE
  5
F89
  8
DATA
  6
CONTINUOUS
 62
     7
 10
-270.94144999999992
 20
-524.17349999999999
 30
0.0
 11
-288.99999999999977
 21
-514.14999999999986
 31
0.0
  0
LINE
  5
F8A
  8
DATA
  6
CONTINUOUS
 62
     7
 10
-244.4999999999998
 20
-538.84999999999991
 30
0.0
 11
-261.33202999999992
 21
-529.50726999999995
 31
0.0
  0
LINE
  5
F8B
  8
DATA
  6
CONTINUOUS
 62
     7
 10
-273.65435000000002
 20
-529.06769999999995
 30
0.0
 11
-288.99999999999977
 21
-520.54999999999995
 31
0.0
  0
LINE
  5
F8C
  8
DATA
  6
CONTINUOUS
 62
     7
 10
-244.4999999999998
 20
-545.24999999999966
 30
0.0
 11
-264.04493000000002
 21
-534.40146999999979
 31
0.0
  0
ARC
  5
F8D
  8
DATA
  6
CONTINUOUS
 62
     7
 10
-262.70209999999992
 20
-531.97893999999985
 30
0.0
 40
2.79790189472395
 50
60.999994265215697
 51
240.99999426521569
  0
ARC
  5
F8E
  8
DATA
  6
CONTINUOUS
 62
     7
 10
-272.29790000000003
 20
-526.62059999999985
 30
0.0
 40
2.79790189472395
 50
240.99999426521569
 51
60.999994265215719
  0
LINE
  5
F8F
  8
DATA
  6
CONTINUOUS
 62
     7
 10
-270.94144999999992
 20
-533.17349999999999
 30
0.0
 11
-288.99999999999977
 21
-523.14999999999986
 31
0.0
  0
LINE
  5
F90
  8
DATA
  6
CONTINUOUS
 62
     7
 10
-244.4999999999998
 20
-547.84999999999991
 30
0.0
 11
-261.33202999999992
 21
-538.50726999999995
 31
0.0
  0
LINE
  5
F91
  8
DATA
  6
CONTINUOUS
 62
     7
 10
-273.65435000000002
 20
-538.06769999999995
 30
0.0
 11
-288.99999999999977
 21
-529.54999999999995
 31
0.0
  0
LINE
  5
F92
  8
DATA
  6
CONTINUOUS
 62
     7
 10
-244.4999999999998
 20
-554.24999999999966
 30
0.0
 11
-264.04493000000002
 21
-543.40146999999968
 31
0.0
  0
ARC
  5
F93
  8
DATA
  6
CONTINUOUS
 62
     7
 10
-262.70209999999992
 20
-540.97893999999997
 30
0.0
 40
2.79790189472395
 50
60.999994265215697
 51
240.99999426521569
  0
ARC
  5
F94
  8
DATA
  6
CONTINUOUS
 62
     7
 10
-272.29790000000003
 20
-535.62059999999985
 30
0.0
 40
2.79790189472395
 50
240.99999426521569
 51
60.999994265215719
  0
LINE
  5
F95
  8
DATA
  6
CONTINUOUS
 62
     7
 10
-145.55854999999991
 20
-470.17349999999999
 30
0.0
 11
-127.5
 21
-460.14999999999992
 31
0.0
  0
LINE
  5
F96
  8
DATA
  6
CONTINUOUS
 62
     7
 10
-172.0
 20
-484.84999999999991
 30
0.0
 11
-155.16796999999991
 21
-475.50727000000001
 31
0.0
  0
LINE
  5
F97
  8
DATA
  6
CONTINUOUS
 62
     7
 10
-142.84564999999981
 20
-475.0677
 30
0.0
 11
-127.5
 21
-466.55000000000001
 31
0.0
  0
LINE
  5
F98
  8
DATA
  6
CONTINUOUS
 62
     7
 10
-172.0
 20
-491.25
 30
0.0
 11
-152.45506999999981
 21
-480.40146999999968
 31
0.0
  0
ARC
  5
F99
  8
DATA
  6
CONTINUOUS
 62
     7
 10
-153.79789999999991
 20
-477.97894000000002
 30
0.0
 40
2.79790189472395
 50
299.00000573478422
 51
119.0000057347843
  0
ARC
  5
F9A
  8
DATA
  6
CONTINUOUS
 62
     7
 10
-144.2020999999998
 20
-472.62060000000002
 30
0.0
 40
2.79790189472395
 50
119.0000057347843
 51
299.00000573478422
  0
LINE
  5
F9B
  8
DATA
  6
CONTINUOUS
 62
     7
 10
-145.55854999999991
 20
-479.17349999999999
 30
0.0
 11
-127.5
 21
-469.14999999999992
 31
0.0
  0
LINE
  5
F9C
  8
DATA
  6
CONTINUOUS
 62
     7
 10
-172.0
 20
-493.84999999999991
 30
0.0
 11
-155.16796999999991
 21
-484.50727000000001
 31
0.0
  0
LINE
  5
F9D
  8
DATA
  6
CONTINUOUS
 62
     7
 10
-142.84564999999981
 20
-484.0677
 30
0.0
 11
-127.5
 21
-475.55000000000001
 31
0.0
  0
LINE
  5
F9E
  8
DATA
  6
CONTINUOUS
 62
     7
 10
-172.0
 20
-500.25
 30
0.0
 11
-152.45506999999981
 21
-489.40146999999968
 31
0.0
  0
ARC
  5
F9F
  8
DATA
  6
CONTINUOUS
 62
     7
 10
-153.79789999999991
 20
-486.97894000000002
 30
0.0
 40
2.79790189472395
 50
299.00000573478422
 51
119.0000057347843
  0
ARC
  5
FA0
  8
DATA
  6
CONTINUOUS
 62
     7
 10
-144.2020999999998
 20
-481.62060000000002
 30
0.0
 40
2.79790189472395
 50
119.0000057347843
 51
299.00000573478422
  0
LINE
  5
FA1
  8
DATA
  6
CONTINUOUS
 62
     7
 10
-145.55854999999991
 20
-488.17349999999988
 30
0.0
 11
-127.5
 21
-478.14999999999998
 31
0.0
  0
LINE
  5
FA2
  8
DATA
  6
CONTINUOUS
 62
     7
 10
-172.0
 20
-502.84999999999991
 30
0.0
 11
-155.16796999999991
 21
-493.50727000000001
 31
0.0
  0
LINE
  5
FA3
  8
DATA
  6
CONTINUOUS
 62
     7
 10
-142.84564999999981
 20
-493.0677
 30
0.0
 11
-127.5
 21
-484.55000000000001
 31
0.0
  0
LINE
  5
FA4
  8
DATA
  6
CONTINUOUS
 62
     7
 10
-172.0
 20
-509.24999999999989
 30
0.0
 11
-152.45506999999981
 21
-498.40146999999968
 31
0.0
  0
ARC
  5
FA5
  8
DATA
  6
CONTINUOUS
 62
     7
 10
-153.79789999999991
 20
-495.97894000000002
 30
0.0
 40
2.79790189472395
 50
299.00000573478422
 51
119.0000057347843
  0
ARC
  5
FA6
  8
DATA
  6
CONTINUOUS
 62
     7
 10
-144.2020999999998
 20
-490.62060000000002
 30
0.0
 40
2.79790189472395
 50
119.0000057347843
 51
299.00000573478422
  0
LINE
  5
FA7
  8
DATA
  6
CONTINUOUS
 62
     7
 10
-145.55854999999991
 20
-497.17349999999988
 30
0.0
 11
-127.5
 21
-487.14999999999998
 31
0.0
  0
LINE
  5
FA8
  8
DATA
  6
CONTINUOUS
 62
     7
 10
-172.0
 20
-511.84999999999991
 30
0.0
 11
-155.16796999999991
 21
-502.50726999999989
 31
0.0
  0
LINE
  5
FA9
  8
DATA
  6
CONTINUOUS
 62
     7
 10
-142.84564999999981
 20
-502.0677
 30
0.0
 11
-127.5
 21
-493.55000000000001
 31
0.0
  0
LINE
  5
FAA
  8
DATA
  6
CONTINUOUS
 62
     7
 10
-172.0
 20
-518.24999999999989
 30
0.0
 11
-152.45506999999981
 21
-507.40146999999979
 31
0.0
  0
ARC
  5
FAB
  8
DATA
  6
CONTINUOUS
 62
     7
 10
-153.79789999999991
 20
-504.97894000000002
 30
0.0
 40
2.79790189472395
 50
299.00000573478422
 51
119.0000057347843
  0
ARC
  5
FAC
  8
DATA
  6
CONTINUOUS
 62
     7
 10
-144.2020999999998
 20
-499.62059999999991
 30
0.0
 40
2.79790189472395
 50
119.0000057347843
 51
299.00000573478422
  0
LINE
  5
FAD
  8
DATA
  6
CONTINUOUS
 62
     7
 10
-145.55854999999991
 20
-506.17349999999988
 30
0.0
 11
-127.5
 21
-496.14999999999998
 31
0.0
  0
LINE
  5
FAE
  8
DATA
  6
CONTINUOUS
 62
     7
 10
-172.0
 20
-520.84999999999991
 30
0.0
 11
-155.16796999999991
 21
-511.50726999999989
 31
0.0
  0
LINE
  5
FAF
  8
DATA
  6
CONTINUOUS
 62
     7
 10
-142.84564999999981
 20
-511.06769999999989
 30
0.0
 11
-127.5
 21
-502.55000000000001
 31
0.0
  0
LINE
  5
FB0
  8
DATA
  6
CONTINUOUS
 62
     7
 10
-172.0
 20
-527.24999999999989
 30
0.0
 11
-152.45506999999981
 21
-516.4014699999999
 31
0.0
  0
ARC
  5
FB1
  8
DATA
  6
CONTINUOUS
 62
     7
 10
-153.79789999999991
 20
-513.97893999999985
 30
0.0
 40
2.79790189472395
 50
299.00000573478422
 51
119.0000057347843
  0
ARC
  5
FB2
  8
DATA
  6
CONTINUOUS
 62
     7
 10
-144.2020999999998
 20
-508.62060000000002
 30
0.0
 40
2.79790189472395
 50
119.0000057347843
 51
299.00000573478422
  0
LINE
  5
FB3
  8
DATA
  6
CONTINUOUS
 62
     7
 10
-145.55854999999991
 20
-515.17349999999999
 30
0.0
 11
-127.5
 21
-505.14999999999981
 31
0.0
  0
LINE
  5
FB4
  8
DATA
  6
CONTINUOUS
 62
     7
 10
-172.0
 20
-529.84999999999968
 30
0.0
 11
-155.16796999999991
 21
-520.50726999999995
 31
0.0
  0
LINE
  5
FB5
  8
DATA
  6
CONTINUOUS
 62
     7
 10
-142.84564999999981
 20
-520.06769999999995
 30
0.0
 11
-127.5
 21
-511.54999999999978
 31
0.0
  0
LINE
  5
FB6
  8
DATA
  6
CONTINUOUS
 62
     7
 10
-172.0
 20
-536.24999999999977
 30
0.0
 11
-152.45506999999981
 21
-525.4014699999999
 31
0.0
  0
ARC
  5
FB7
  8
DATA
  6
CONTINUOUS
 62
     7
 10
-153.79789999999991
 20
-522.97893999999985
 30
0.0
 40
2.79790189472395
 50
299.00000573478422
 51
119.0000057347843
  0
ARC
  5
FB8
  8
DATA
  6
CONTINUOUS
 62
     7
 10
-144.2020999999998
 20
-517.62059999999985
 30
0.0
 40
2.79790189472395
 50
119.0000057347843
 51
299.00000573478422
  0
LINE
  5
FB9
  8
DATA
  6
CONTINUOUS
 62
     7
 10
-145.55854999999991
 20
-524.17349999999999
 30
0.0
 11
-127.5
 21
-514.14999999999986
 31
0.0
  0
LINE
  5
FBA
  8
DATA
  6
CONTINUOUS
 62
     7
 10
-172.0
 20
-538.84999999999991
 30
0.0
 11
-155.16796999999991
 21
-529.50726999999995
 31
0.0
  0
LINE
  5
FBB
  8
DATA
  6
CONTINUOUS
 62
     7
 10
-142.84564999999981
 20
-529.06769999999995
 30
0.0
 11
-127.5
 21
-520.54999999999995
 31
0.0
  0
LINE
  5
FBC
  8
DATA
  6
CONTINUOUS
 62
     7
 10
-172.0
 20
-545.24999999999966
 30
0.0
 11
-152.45506999999981
 21
-534.40146999999979
 31
0.0
  0
ARC
  5
FBD
  8
DATA
  6
CONTINUOUS
 62
     7
 10
-153.79789999999991
 20
-531.97893999999985
 30
0.0
 40
2.79790189472395
 50
299.00000573478422
 51
119.0000057347843
  0
ARC
  5
FBE
  8
DATA
  6
CONTINUOUS
 62
     7
 10
-144.2020999999998
 20
-526.62059999999985
 30
0.0
 40
2.79790189472395
 50
119.0000057347843
 51
299.00000573478422
  0
LINE
  5
FBF
  8
DATA
  6
CONTINUOUS
 62
     7
 10
-145.55854999999991
 20
-533.17349999999999
 30
0.0
 11
-127.5
 21
-523.14999999999986
 31
0.0
  0
LINE
  5
FC0
  8
DATA
  6
CONTINUOUS
 62
     7
 10
-172.0
 20
-547.84999999999991
 30
0.0
 11
-155.16796999999991
 21
-538.50726999999995
 31
0.0
  0
LINE
  5
FC1
  8
DATA
  6
CONTINUOUS
 62
     7
 10
-142.84564999999981
 20
-538.06769999999995
 30
0.0
 11
-127.5
 21
-529.54999999999995
 31
0.0
  0
LINE
  5
FC2
  8
DATA
  6
CONTINUOUS
 62
     7
 10
-172.0
 20
-554.24999999999966
 30
0.0
 11
-152.45506999999981
 21
-543.40146999999968
 31
0.0
  0
ARC
  5
FC3
  8
DATA
  6
CONTINUOUS
 62
     7
 10
-153.79789999999991
 20
-540.97893999999997
 30
0.0
 40
2.79790189472395
 50
299.00000573478422
 51
119.0000057347843
  0
ARC
  5
FC4
  8
DATA
  6
CONTINUOUS
 62
     7
 10
-144.2020999999998
 20
-535.62059999999985
 30
0.0
 40
2.79790189472395
 50
119.0000057347843
 51
299.00000573478422
  0
LINE
  5
FC5
  8
DATA
  6
CONTINUOUS
 62
     7
 10
-244.24999999999989
 20
-472.14999999999981
 30
0.0
 11
-172.25
 21
-472.14999999999981
 31
0.0
  0
LINE
  5
FC6
  8
DATA
  6
CONTINUOUS
 62
     7
 10
-266.74999999999989
 20
-454.14999999999998
 30
0.0
 11
-149.75
 21
-454.14999999999998
 31
0.0
  0
LINE
  5
FC7
  8
DATA
  6
CONTINUOUS
 62
     7
 10
-148.70956000000001
 20
-457.85806999999988
 30
0.0
 11
-172.25
 21
-472.14999999999981
 31
0.0
  0
LINE
  5
FC8
  8
DATA
  6
CONTINUOUS
 62
     7
 10
-244.24999999999989
 20
-472.14999999999981
 30
0.0
 11
-267.78793000000002
 21
-457.8595899999998
 31
0.0
  0
ARC
  5
FC9
  8
DATA
  6
CONTINUOUS
 62
     7
 10
-266.74999999999989
 20
-456.14999999999992
 30
0.0
 40
2.0
 50
90.0
 51
238.78945937457709
  0
ARC
  5
FCA
  8
DATA
  6
CONTINUOUS
 62
     7
 10
-149.75
 20
-456.14999999999992
 30
0.0
 40
2.000004629619653
 50
301.34692903028599
 51
90.000000000000057
  0
LINE
  5
FCB
  8
DATA
  6
CONTINUOUS
 62
     7
 10
-412.5
 20
-566.8499999999998
 30
0.0
 11
-412.5
 21
-534.84999999999991
 31
0.0
  0
LINE
  5
FCC
  8
DATA
  6
CONTINUOUS
 62
     7
 10
-4.0
 20
-566.8499999999998
 30
0.0
 11
-412.5
 21
-566.8499999999998
 31
0.0
  0
LINE
  5
FCD
  8
DATA
  6
CONTINUOUS
 62
     7
 10
-288.99999999999977
 20
-534.84999999999991
 30
0.0
 11
-412.5
 21
-534.84999999999991
 31
0.0
  0
LINE
  5
FCE
  8
DATA
  6
CONTINUOUS
 62
     7
 10
-172.0
 20
-559.54999999999995
 30
0.0
 11
-244.4999999999998
 21
-559.54999999999995
 31
0.0
  0
LINE
  5
FCF
  8
DATA
  6
CONTINUOUS
 62
     7
 10
-288.99999999999977
 20
-534.84999999999991
 30
0.0
 11
-244.4999999999998
 21
-559.54999999999995
 31
0.0
  0
LINE
  5
FD0
  8
DATA
  6
CONTINUOUS
 62
     7
 10
-127.5
 20
-534.84999999999991
 30
0.0
 11
-172.0
 21
-559.54999999999995
 31
0.0
  0
LINE
  5
FD1
  8
DATA
  6
CONTINUOUS
 62
     7
 10
-127.5
 20
-534.84999999999991
 30
0.0
 11
-4.0
 21
-534.84999999999991
 31
0.0
  0
LINE
  5
FD2
  8
DATA
  6
CONTINUOUS
 62
     7
 10
-4.0
 20
-534.84999999999991
 30
0.0
 11
-4.0
 21
-566.8499999999998
 31
0.0
  0
TEXT
  5
FD3
  8
DATA
 62
     7
 10
-400.19999999999987
 20
-546.79166599999985
 30
0.0
 40
4.2333360000000004
  1
Off
 41
0.75
 11
-400.19999999999987
 21
-542.55832999999996
 31
0.0
 73
     3
  0
TEXT
  5
FD4
  8
DATA
 62
     7
 10
-375.49166999999989
 20
-546.79166599999985
 30
0.0
 40
4.2333360000000004
  1
On
 41
0.75
 11
-375.49166999999989
 21
-542.55832999999996
 31
0.0
 73
     3
  0
LINE
  5
FD5
  8
DATA
  6
CONTINUOUS
 62
     7
 10
-354.99999999999977
 20
-553.59999999999991
 30
0.0
 11
-354.99999999999977
 21
-556.09999999999991
 31
0.0
  0
LINE
  5
FD6
  8
DATA
  6
CONTINUOUS
 62
     7
 10
-341.49999999999989
 20
-556.09999999999991
 30
0.0
 11
-341.49999999999989
 21
-553.59999999999991
 31
0.0
  0
ARC
  5
FD7
  8
DATA
  6
CONTINUOUS
 62
     7
 10
-348.24999999999977
 20
-556.09999999999991
 30
0.0
 40
6.75
 50
180.0
 51
0.0
  0
ARC
  5
FD8
  8
DATA
  6
CONTINUOUS
 62
     7
 10
-348.24999999999977
 20
-553.59999999999991
 30
0.0
 40
6.75
 50
0.0
 51
180.0
  0
CIRCLE
  5
FD9
  8
DATA
  6
CONTINUOUS
 62
     7
 10
-348.24999999999977
 20
-554.84999999999968
 30
0.0
 40
3.0
  0
TEXT
  5
FDA
  8
DATA
 62
     7
 10
-354.86459000000002
 20
-543.79166599999985
 30
0.0
 40
4.2333360000000004
  1
Reset
 41
0.75
 11
-354.86459000000002
 21
-539.55832999999996
 31
0.0
 73
     3
  0
CIRCLE
  5
FDB
  8
DATA
  6
CONTINUOUS
 62
     7
 10
-148.75
 20
-560.84999999999991
 30
0.0
 40
3.0
  0
CIRCLE
  5
FDC
  8
DATA
  6
CONTINUOUS
 62
     7
 10
-125.75
 20
-560.84999999999991
 30
0.0
 40
3.0
  0
CIRCLE
  5
FDD
  8
DATA
  6
CONTINUOUS
 62
     7
 10
-114.7499999999999
 20
-560.84999999999991
 30
0.0
 40
3.0
  0
CIRCLE
  5
FDE
  8
DATA
  6
CONTINUOUS
 62
     7
 10
-102.75
 20
-560.84999999999991
 30
0.0
 40
3.0
  0
CIRCLE
  5
FDF
  8
DATA
  6
CONTINUOUS
 62
     7
 10
-82.999999999999986
 20
-552.84999999999991
 30
0.0
 40
7.5
  0
LINE
  5
FE0
  8
DATA
  6
CONTINUOUS
 62
     7
 10
-81.342359999999985
 20
-545.53549999999996
 30
0.0
 11
-90.314549999999997
 21
-554.50768999999968
 31
0.0
  0
LINE
  5
FE1
  8
DATA
  6
CONTINUOUS
 62
     7
 10
-75.685500000000005
 20
-551.19235999999989
 30
0.0
 11
-84.657689999999988
 21
-560.16454999999996
 31
0.0
  0
LINE
  5
FE2
  8
DATA
  6
CONTINUOUS
 62
     7
 10
-82.999999999999986
 20
-552.84999999999991
 30
0.0
 11
-88.303299999999979
 21
-558.15329999999994
 31
0.0
  0
CIRCLE
  5
FE3
  8
DATA
  6
CONTINUOUS
 62
     7
 10
-61.750000000000021
 20
-560.84999999999991
 30
0.0
 40
3.0
  0
CIRCLE
  5
FE4
  8
DATA
  6
CONTINUOUS
 62
     7
 10
-50.750000000000021
 20
-560.84999999999991
 30
0.0
 40
3.0
  0
CIRCLE
  5
FE5
  8
DATA
  6
CONTINUOUS
 62
     7
 10
-38.75
 20
-560.84999999999991
 30
0.0
 40
3.0
  0
TEXT
  5
FE6
  8
DATA
 62
     7
 10
-152.05728999999991
 20
-555.32083399999999
 30
0.0
 40
2.1166640000000001
  1
Power
 41
0.75
 11
-152.05728999999991
 21
-553.20416999999986
 31
0.0
 73
     3
  0
TEXT
  5
FE7
  8
DATA
 62
     7
 10
-129.7187499999998
 20
-555.32083399999999
 30
0.0
 40
2.1166640000000001
  1
Signal
 41
0.75
 11
-129.7187499999998
 21
-553.20416999999986
 31
0.0
 73
     3
  0
TEXT
  5
FE8
  8
DATA
 62
     7
 10
-117.39583
 20
-555.32083399999999
 30
0.0
 40
2.1166640000000001
  1
Clip
 41
0.75
 11
-117.39583
 21
-553.20416999999986
 31
0.0
 73
     3
  0
TEXT
  5
FE9
  8
DATA
 62
     7
 10
-106.0572899999999
 20
-555.32083399999999
 30
0.0
 40
2.1166640000000001
  1
Fault
 41
0.75
 11
-106.0572899999999
 21
-553.20416999999986
 31
0.0
 73
     3
  0
LINE
  5
FEA
  8
DATA
  6
CONTINUOUS
 62
     7
 10
-127.2499999999999
 20
-551.84999999999991
 30
0.0
 11
-103.2499999999999
 21
-551.84999999999991
 31
0.0
  0
LINE
  5
FEB
  8
DATA
  6
CONTINUOUS
 62
     7
 10
-127.2499999999999
 20
-551.84999999999991
 30
0.0
 11
-127.2499999999999
 21
-552.84999999999991
 31
0.0
  0
CIRCLE
  5
FEC
  8
DATA
  6
CONTINUOUS
 62
     7
 10
-82.999999999999986
 20
-543.34999999999991
 30
0.0
 40
0.5
  0
CIRCLE
  5
FED
  8
DATA
  6
CONTINUOUS
 62
     7
 10
-85.458780000000004
 20
-543.67370999999991
 30
0.0
 40
0.5
  0
CIRCLE
  5
FEE
  8
DATA
  6
CONTINUOUS
 62
     7
 10
-87.749999999999986
 20
-544.62275999999986
 30
0.0
 40
0.5
  0
CIRCLE
  5
FEF
  8
DATA
  6
CONTINUOUS
 62
     7
 10
-89.717509999999947
 20
-546.13248999999996
 30
0.0
 40
0.5
  0
CIRCLE
  5
FF0
  8
DATA
  6
CONTINUOUS
 62
     7
 10
-91.227240000000023
 20
-548.0999999999998
 30
0.0
 40
0.5
  0
CIRCLE
  5
FF1
  8
DATA
  6
CONTINUOUS
 62
     7
 10
-92.176290000000023
 20
-550.39121999999998
 30
0.0
 40
0.5
  0
CIRCLE
  5
FF2
  8
DATA
  6
CONTINUOUS
 62
     7
 10
-92.499999999999986
 20
-552.84999999999991
 30
0.0
 40
0.5
  0
CIRCLE
  5
FF3
  8
DATA
  6
CONTINUOUS
 62
     7
 10
-87.749999999999986
 20
-561.07723999999996
 30
0.0
 40
0.5
  0
CIRCLE
  5
FF4
  8
DATA
  6
CONTINUOUS
 62
     7
 10
-89.717509999999947
 20
-559.56750999999997
 30
0.0
 40
0.5
  0
CIRCLE
  5
FF5
  8
DATA
  6
CONTINUOUS
 62
     7
 10
-91.227240000000023
 20
-557.59999999999991
 30
0.0
 40
0.5
  0
CIRCLE
  5
FF6
  8
DATA
  6
CONTINUOUS
 62
     7
 10
-92.176290000000023
 20
-555.30877999999996
 30
0.0
 40
0.5
  0
CIRCLE
  5
FF7
  8
DATA
  6
CONTINUOUS
 62
     7
 10
-80.541219999999967
 20
-543.67370999999991
 30
0.0
 40
0.5
  0
CIRCLE
  5
FF8
  8
DATA
  6
CONTINUOUS
 62
     7
 10
-78.249999999999986
 20
-544.62275999999986
 30
0.0
 40
0.5
  0
CIRCLE
  5
FF9
  8
DATA
  6
CONTINUOUS
 62
     7
 10
-76.282490000000024
 20
-546.13248999999996
 30
0.0
 40
0.5
  0
CIRCLE
  5
FFA
  8
DATA
  6
CONTINUOUS
 62
     7
 10
-74.772759999999977
 20
-548.0999999999998
 30
0.0
 40
0.5
  0
CIRCLE
  5
FFB
  8
DATA
  6
CONTINUOUS
 62
     7
 10
-73.823709999999977
 20
-550.39121999999998
 30
0.0
 40
0.5
  0
CIRCLE
  5
FFC
  8
DATA
  6
CONTINUOUS
 62
     7
 10
-73.499999999999986
 20
-552.84999999999991
 30
0.0
 40
0.5
  0
CIRCLE
  5
FFD
  8
DATA
  6
CONTINUOUS
 62
     7
 10
-78.249999999999986
 20
-561.07723999999996
 30
0.0
 40
0.5
  0
CIRCLE
  5
FFE
  8
DATA
  6
CONTINUOUS
 62
     7
 10
-76.282490000000024
 20
-559.56750999999997
 30
0.0
 40
0.5
  0
CIRCLE
  5
FFF
  8
DATA
  6
CONTINUOUS
 62
     7
 10
-74.772759999999977
 20
-557.59999999999991
 30
0.0
 40
0.5
  0
CIRCLE
  5
1000
  8
DATA
  6
CONTINUOUS
 62
     7
 10
-73.823709999999977
 20
-555.30877999999996
 30
0.0
 40
0.5
  0
TEXT
  5
1001
  8
DATA
 62
     7
 10
-90.895830000000004
 20
-543.59359399999994
 30
0.0
 40
2.1166640000000001
  1
17
 41
0.75
 11
-90.895830000000004
 21
-541.47692999999992
 31
0.0
 73
     3
  0
TEXT
  5
1002
  8
DATA
 62
     7
 10
-77.749999999999986
 20
-543.59359399999994
 30
0.0
 40
2.1166640000000001
  1
9
 41
0.75
 11
-77.749999999999986
 21
-541.47692999999992
 31
0.0
 73
     3
  0
TEXT
  5
1003
  8
DATA
 62
     7
 10
-71.999999999999986
 20
-553.64375399999994
 30
0.0
 40
2.1166640000000001
  1
2
 41
0.75
 11
-71.999999999999986
 21
-551.52708999999993
 31
0.0
 73
     3
  0
TEXT
  5
1004
  8
DATA
 62
     7
 10
-90.895830000000004
 20
-563.69390399999986
 30
0.0
 40
2.1166640000000001
  1
∞
 41
0.75
 11
-90.895830000000004
 21
-561.57723999999985
 31
0.0
 73
     3
  0
TEXT
  5
1005
  8
DATA
 62
     7
 10
-77.749999999999986
 20
-563.69390399999986
 30
0.0
 40
2.1166640000000001
  1
0
 41
0.75
 11
-77.749999999999986
 21
-561.57723999999985
 31
0.0
 73
     3
  0
CIRCLE
  5
1006
  8
DATA
  6
CONTINUOUS
 62
     7
 10
-19.0
 20
-552.84999999999991
 30
0.0
 40
7.5
  0
LINE
  5
1007
  8
DATA
  6
CONTINUOUS
 62
     7
 10
-17.342359999999999
 20
-545.53549999999996
 30
0.0
 11
-26.314550000000001
 21
-554.50768999999968
 31
0.0
  0
LINE
  5
1008
  8
DATA
  6
CONTINUOUS
 62
     7
 10
-11.68549999999999
 20
-551.19235999999989
 30
0.0
 11
-20.657689999999992
 21
-560.16454999999996
 31
0.0
  0
LINE
  5
1009
  8
DATA
  6
CONTINUOUS
 62
     7
 10
-19.0
 20
-552.84999999999991
 30
0.0
 11
-24.303300000000011
 21
-558.15329999999994
 31
0.0
  0
TEXT
  5
100A
  8
DATA
 62
     7
 10
-65.718749999999986
 20
-555.32083399999999
 30
0.0
 40
2.1166640000000001
  1
Signal
 41
0.75
 11
-65.718749999999986
 21
-553.20416999999986
 31
0.0
 73
     3
  0
TEXT
  5
100B
  8
DATA
 62
     7
 10
-53.395829999999997
 20
-555.32083399999999
 30
0.0
 40
2.1166640000000001
  1
Clip
 41
0.75
 11
-53.395829999999997
 21
-553.20416999999986
 31
0.0
 73
     3
  0
TEXT
  5
100C
  8
DATA
 62
     7
 10
-42.057290000000002
 20
-555.32083399999999
 30
0.0
 40
2.1166640000000001
  1
Fault
 41
0.75
 11
-42.057290000000002
 21
-553.20416999999986
 31
0.0
 73
     3
  0
LINE
  5
100D
  8
DATA
  6
CONTINUOUS
 62
     7
 10
-63.249999999999993
 20
-551.84999999999991
 30
0.0
 11
-39.25
 21
-551.84999999999991
 31
0.0
  0
LINE
  5
100E
  8
DATA
  6
CONTINUOUS
 62
     7
 10
-63.249999999999993
 20
-551.84999999999991
 30
0.0
 11
-63.249999999999993
 21
-552.84999999999991
 31
0.0
  0
CIRCLE
  5
100F
  8
DATA
  6
CONTINUOUS
 62
     7
 10
-19.0
 20
-543.34999999999991
 30
0.0
 40
0.5
  0
CIRCLE
  5
1010
  8
DATA
  6
CONTINUOUS
 62
     7
 10
-21.458780000000001
 20
-543.67370999999991
 30
0.0
 40
0.5
  0
CIRCLE
  5
1011
  8
DATA
  6
CONTINUOUS
 62
     7
 10
-23.75
 20
-544.62275999999986
 30
0.0
 40
0.5
  0
CIRCLE
  5
1012
  8
DATA
  6
CONTINUOUS
 62
     7
 10
-25.717510000000001
 20
-546.13248999999996
 30
0.0
 40
0.5
  0
CIRCLE
  5
1013
  8
DATA
  6
CONTINUOUS
 62
     7
 10
-27.227240000000009
 20
-548.0999999999998
 30
0.0
 40
0.5
  0
CIRCLE
  5
1014
  8
DATA
  6
CONTINUOUS
 62
     7
 10
-28.176290000000009
 20
-550.39121999999998
 30
0.0
 40
0.5
  0
CIRCLE
  5
1015
  8
DATA
  6
CONTINUOUS
 62
     7
 10
-28.500000000000011
 20
-552.84999999999991
 30
0.0
 40
0.5000000000000142
  0
CIRCLE
  5
1016
  8
DATA
  6
CONTINUOUS
 62
     7
 10
-23.75
 20
-561.07723999999996
 30
0.0
 40
0.5
  0
CIRCLE
  5
1017
  8
DATA
  6
CONTINUOUS
 62
     7
 10
-25.717510000000001
 20
-559.56750999999997
 30
0.0
 40
0.5
  0
CIRCLE
  5
1018
  8
DATA
  6
CONTINUOUS
 62
     7
 10
-27.227240000000009
 20
-557.59999999999991
 30
0.0
 40
0.5
  0
CIRCLE
  5
1019
  8
DATA
  6
CONTINUOUS
 62
     7
 10
-28.176290000000009
 20
-555.30877999999996
 30
0.0
 40
0.5
  0
CIRCLE
  5
101A
  8
DATA
  6
CONTINUOUS
 62
     7
 10
-16.541219999999999
 20
-543.67370999999991
 30
0.0
 40
0.5
  0
CIRCLE
  5
101B
  8
DATA
  6
CONTINUOUS
 62
     7
 10
-14.25
 20
-544.62275999999986
 30
0.0
 40
0.5
  0
CIRCLE
  5
101C
  8
DATA
  6
CONTINUOUS
 62
     7
 10
-12.28249000000001
 20
-546.13248999999996
 30
0.0
 40
0.5
  0
CIRCLE
  5
101D
  8
DATA
  6
CONTINUOUS
 62
     7
 10
-10.77276
 20
-548.0999999999998
 30
0.0
 40
0.5
  0
CIRCLE
  5
101E
  8
DATA
  6
CONTINUOUS
 62
     7
 10
-9.8237100000000037
 20
-550.39121999999998
 30
0.0
 40
0.5
  0
CIRCLE
  5
101F
  8
DATA
  6
CONTINUOUS
 62
     7
 10
-9.5
 20
-552.84999999999991
 30
0.0
 40
0.5
  0
CIRCLE
  5
1020
  8
DATA
  6
CONTINUOUS
 62
     7
 10
-14.25
 20
-561.07723999999996
 30
0.0
 40
0.5
  0
CIRCLE
  5
1021
  8
DATA
  6
CONTINUOUS
 62
     7
 10
-12.28249000000001
 20
-559.56750999999997
 30
0.0
 40
0.5
  0
CIRCLE
  5
1022
  8
DATA
  6
CONTINUOUS
 62
     7
 10
-10.77276
 20
-557.59999999999991
 30
0.0
 40
0.5
  0
CIRCLE
  5
1023
  8
DATA
  6
CONTINUOUS
 62
     7
 10
-9.8237100000000037
 20
-555.30877999999996
 30
0.0
 40
0.5
  0
TEXT
  5
1024
  8
DATA
 62
     7
 10
-26.89583
 20
-543.59359399999994
 30
0.0
 40
2.1166640000000001
  1
17
 41
0.75
 11
-26.89583
 21
-541.47692999999992
 31
0.0
 73
     3
  0
TEXT
  5
1025
  8
DATA
 62
     7
 10
-13.75
 20
-543.59359399999994
 30
0.0
 40
2.1166640000000001
  1
9
 41
0.75
 11
-13.75
 21
-541.47692999999992
 31
0.0
 73
     3
  0
TEXT
  5
1026
  8
DATA
 62
     7
 10
-8.0
 20
-553.64375399999994
 30
0.0
 40
2.1166640000000001
  1
2
 41
0.75
 11
-8.0
 21
-551.52708999999993
 31
0.0
 73
     3
  0
TEXT
  5
1027
  8
DATA
 62
     7
 10
-32.645829999999997
 20
-553.64375399999994
 30
0.0
 40
2.1166640000000001
  1
33
 41
0.75
 11
-32.645829999999997
 21
-551.52708999999993
 31
0.0
 73
     3
  0
TEXT
  5
1028
  8
DATA
 62
     7
 10
-26.89583
 20
-563.69390399999986
 30
0.0
 40
2.1166640000000001
  1
∞
 41
0.75
 11
-26.89583
 21
-561.57723999999985
 31
0.0
 73
     3
  0
TEXT
  5
1029
  8
DATA
 62
     7
 10
-13.75
 20
-563.69390399999986
 30
0.0
 40
2.1166640000000001
  1
0
 41
0.75
 11
-13.75
 21
-561.57723999999985
 31
0.0
 73
     3
  0
TEXT
  5
102A
  8
DATA
 62
     7
 10
-96.645830000000004
 20
-553.64375399999994
 30
0.0
 40
2.1166640000000001
  1
33
 41
0.75
 11
-96.645830000000004
 21
-551.52708999999993
 31
0.0
 73
     3
  0
TEXT
  5
102B
  8
DATA
 62
     7
 10
-102.2499999999999
 20
-551.29166599999996
 30
0.0
 40
4.2333360000000004
  1
1
 41
0.75
 11
-102.2499999999999
 21
-547.05832999999996
 31
0.0
 73
     3
  0
TEXT
  5
102C
  8
DATA
 62
     7
 10
-38.250000000000007
 20
-551.29166599999996
 30
0.0
 40
4.2333360000000004
  1
2
 41
0.75
 11
-38.250000000000007
 21
-547.05832999999996
 31
0.0
 73
     3
  0
LINE
  5
102D
  8
DATA
  6
CONTINUOUS
 62
     7
 10
8.5
 20
-325.49999999999989
 30
0.0
 11
8.5
 21
-38.999999999999957
 31
0.0
  0
LINE
  5
102E
  8
DATA
  6
CONTINUOUS
 62
     7
 10
5.6999999999999869
 20
-349.99999999999977
 30
0.0
 11
33.499999999999972
 21
-349.99999999999977
 31
0.0
  0
LINE
  5
102F
  8
DATA
  6
CONTINUOUS
 62
     7
 10
-450.0
 20
-349.99999999999977
 30
0.0
 11
-419.19999999999987
 21
-349.99999999999977
 31
0.0
  0
LINE
  5
1030
  8
DATA
  6
CONTINUOUS
 62
     7
 10
-450.0
 20
-349.99999999999977
 30
0.0
 11
-450.0
 21
-345.99999999999977
 31
0.0
  0
LINE
  5
1031
  8
DATA
  6
CONTINUOUS
 62
     7
 10
33.499999999999972
 20
-349.99999999999977
 30
0.0
 11
33.499999999999972
 21
-345.99999999999977
 31
0.0
  0
LINE
  5
1032
  8
DATA
  6
CONTINUOUS
 62
     7
 10
-421.25
 20
-343.99999999999977
 30
0.0
 11
4.75
 21
-343.99999999999977
 31
0.0
  0
LINE
  5
1033
  8
DATA
  6
CONTINUOUS
 62
     7
 10
-396.29093
 20
-343.99999999999977
 30
0.0
 11
-378.69999999999987
 21
-348.49999999999977
 31
0.0
  0
LINE
  5
1034
  8
DATA
  6
CONTINUOUS
 62
     7
 10
-378.69999999999987
 20
-348.49999999999977
 30
0.0
 11
-371.74545000000001
 21
-343.99999999999977
 31
0.0
  0
LINE
  5
1035
  8
DATA
  6
CONTINUOUS
 62
     7
 10
-354.99999999999977
 20
-344.49999999999977
 30
0.0
 11
-341.49999999999989
 21
-344.49999999999977
 31
0.0
  0
LINE
  5
1036
  8
DATA
  6
CONTINUOUS
 62
     7
 10
-341.49999999999989
 20
-344.49999999999977
 30
0.0
 11
-341.49999999999989
 21
-343.99999999999977
 31
0.0
  0
LINE
  5
1037
  8
DATA
  6
CONTINUOUS
 62
     7
 10
-354.99999999999977
 20
-344.49999999999977
 30
0.0
 11
-354.99999999999977
 21
-343.99999999999977
 31
0.0
  0
LINE
  5
1038
  8
DATA
  6
CONTINUOUS
 62
     7
 10
-75.685500000000005
 20
-354.99999999999977
 30
0.0
 11
-75.685500000000005
 21
-343.99999999999977
 31
0.0
  0
LINE
  5
1039
  8
DATA
  6
CONTINUOUS
 62
     7
 10
-90.314549999999997
 20
-354.99999999999977
 30
0.0
 11
-90.314549999999997
 21
-343.99999999999977
 31
0.0
  0
LINE
  5
103A
  8
DATA
  6
CONTINUOUS
 62
     7
 10
-90.314549999999997
 20
-354.99999999999977
 30
0.0
 11
-75.685500000000005
 21
-354.99999999999977
 31
0.0
  0
LINE
  5
103B
  8
DATA
  6
CONTINUOUS
 62
     7
 10
-11.68549999999999
 20
-354.99999999999977
 30
0.0
 11
-11.68549999999999
 21
-343.99999999999977
 31
0.0
  0
LINE
  5
103C
  8
DATA
  6
CONTINUOUS
 62
     7
 10
-26.314550000000001
 20
-354.99999999999977
 30
0.0
 11
-26.314550000000001
 21
-343.99999999999977
 31
0.0
  0
LINE
  5
103D
  8
DATA
  6
CONTINUOUS
 62
     7
 10
-26.314550000000001
 20
-354.99999999999977
 30
0.0
 11
-11.68549999999999
 21
-354.99999999999977
 31
0.0
  0
LINE
  5
103E
  8
DATA
  6
CONTINUOUS
 62
     7
 10
-81.342359999999985
 20
-354.99999999999977
 30
0.0
 11
-81.342359999999985
 21
-345.49999999999977
 31
0.0
  0
LINE
  5
103F
  8
DATA
  6
CONTINUOUS
 62
     7
 10
-17.342359999999999
 20
-354.99999999999977
 30
0.0
 11
-17.342359999999999
 21
-345.49999999999977
 31
0.0
  0
LINE
  5
1040
  8
DATA
  6
CONTINUOUS
 62
     7
 10
-90.314549999999997
 20
-345.49999999999977
 30
0.0
 11
-75.685500000000005
 21
-345.49999999999977
 31
0.0
  0
LINE
  5
1041
  8
DATA
  6
CONTINUOUS
 62
     7
 10
-26.314550000000001
 20
-345.49999999999977
 30
0.0
 11
-11.68549999999999
 21
-345.49999999999977
 31
0.0
  0
LINE
  5
1042
  8
DATA
  6
CONTINUOUS
 62
     7
 10
-425.0
 20
-325.49999999999989
 30
0.0
 11
-425.0
 21
-38.999999999999957
 31
0.0
  0
LINE
  5
1043
  8
DATA
  6
CONTINUOUS
 62
     7
 10
8.5
 20
-38.999999999999957
 30
0.0
 11
-425.0
 21
-38.999999999999957
 31
0.0
  0
LINE
  5
1044
  8
DATA
  6
CONTINUOUS
 62
     7
 10
-427.5
 20
-287.99999999999989
 30
0.0
 11
-425.0
 21
-287.99999999999989
 31
0.0
  0
LINE
  5
1045
  8
DATA
  6
CONTINUOUS
 62
     7
 10
-427.5
 20
-287.99999999999989
 30
0.0
 11
-427.5
 21
-294.99999999999977
 31
0.0
  0
LINE
  5
1046
  8
DATA
  6
CONTINUOUS
 62
     7
 10
-427.5
 20
-294.99999999999977
 30
0.0
 11
-425.0
 21
-294.99999999999977
 31
0.0
  0
LINE
  5
1047
  8
DATA
  6
CONTINUOUS
 62
     7
 10
-427.5
 20
-96.999999999999943
 30
0.0
 11
-425.0
 21
-96.999999999999943
 31
0.0
  0
LINE
  5
1048
  8
DATA
  6
CONTINUOUS
 62
     7
 10
-427.5
 20
-96.999999999999943
 30
0.0
 11
-427.5
 21
-103.9999999999998
 31
0.0
  0
LINE
  5
1049
  8
DATA
  6
CONTINUOUS
 62
     7
 10
-427.5
 20
-103.9999999999998
 30
0.0
 11
-425.0
 21
-103.9999999999998
 31
0.0
  0
LINE
  5
104A
  8
DATA
  6
CONTINUOUS
 62
     7
 10
11.0
 20
-287.99999999999989
 30
0.0
 11
8.5
 21
-287.99999999999989
 31
0.0
  0
LINE
  5
104B
  8
DATA
  6
CONTINUOUS
 62
     7
 10
11.0
 20
-287.99999999999989
 30
0.0
 11
11.0
 21
-294.99999999999977
 31
0.0
  0
LINE
  5
104C
  8
DATA
  6
CONTINUOUS
 62
     7
 10
11.0
 20
-294.99999999999977
 30
0.0
 11
8.5
 21
-294.99999999999977
 31
0.0
  0
LINE
  5
104D
  8
DATA
  6
CONTINUOUS
 62
     7
 10
11.0
 20
-96.999999999999943
 30
0.0
 11
8.5
 21
-96.999999999999943
 31
0.0
  0
LINE
  5
104E
  8
DATA
  6
CONTINUOUS
 62
     7
 10
11.0
 20
-96.999999999999943
 30
0.0
 11
11.0
 21
-103.9999999999998
 31
0.0
  0
LINE
  5
104F
  8
DATA
  6
CONTINUOUS
 62
     7
 10
11.0
 20
-103.9999999999998
 30
0.0
 11
8.5
 21
-103.9999999999998
 31
0.0
  0
LINE
  5
1050
  8
DATA
  6
CONTINUOUS
 62
     7
 10
-419.19999999999987
 20
-349.99999999999977
 30
0.0
 11
-419.19999999999987
 21
-343.99999999999977
 31
0.0
  0
LINE
  5
1051
  8
DATA
  6
CONTINUOUS
 62
     7
 10
2.6999999999999882
 20
-346.99999999999977
 30
0.0
 11
2.6999999999999882
 21
-343.99999999999977
 31
0.0
  0
LINE
  5
1052
  8
DATA
  6
CONTINUOUS
 62
     7
 10
-419.5
 20
-329.49999999999989
 30
0.0
 11
3.0
 21
-329.49999999999989
 31
0.0
  0
LINE
  5
1053
  8
DATA
  6
CONTINUOUS
 62
     7
 10
-423.24999999999989
 20
-345.99999999999977
 30
0.0
 11
-423.24999999999989
 21
-325.49999999999989
 31
0.0
  0
LINE
  5
1054
  8
DATA
  6
CONTINUOUS
 62
     7
 10
-425.0
 20
-325.49999999999989
 30
0.0
 11
-421.64999999999992
 21
-325.49999999999989
 31
0.0
  0
LINE
  5
1055
  8
DATA
  6
CONTINUOUS
 62
     7
 10
6.75
 20
-345.99999999999977
 30
0.0
 11
6.75
 21
-325.49999999999989
 31
0.0
  0
LINE
  5
1056
  8
DATA
  6
CONTINUOUS
 62
     7
 10
8.5
 20
-325.49999999999989
 30
0.0
 11
5.1499999999999924
 21
-325.49999999999989
 31
0.0
  0
LINE
  5
1057
  8
DATA
  6
CONTINUOUS
 62
     7
 10
3.0
 20
-329.49999999999989
 30
0.0
 11
3.0
 21
-343.99999999999977
 31
0.0
  0
ARC
  5
1058
  8
DATA
  6
CONTINUOUS
 62
     7
 10
5.6999999999999869
 20
-346.99999999999977
 30
0.0
 40
3.0
 50
180.0
 51
270.0
  0
LINE
  5
1059
  8
DATA
  6
CONTINUOUS
 62
     7
 10
5.1499999999999924
 20
-347.60000000000002
 30
0.0
 11
5.1499999999999924
 21
-325.49999999999989
 31
0.0
  0
LINE
  5
105A
  8
DATA
  6
CONTINUOUS
 62
     7
 10
-421.64999999999992
 20
-347.60000000000002
 30
0.0
 11
-421.64999999999992
 21
-325.49999999999989
 31
0.0
  0
LINE
  5
105B
  8
DATA
  6
CONTINUOUS
 62
     7
 10
4.75
 20
-347.99999999999977
 30
0.0
 11
33.499999999999972
 21
-347.99999999999977
 31
0.0
  0
LINE
  5
105C
  8
DATA
  6
CONTINUOUS
 62
     7
 10
6.75
 20
-345.99999999999977
 30
0.0
 11
33.499999999999972
 21
-345.99999999999977
 31
0.0
  0
LINE
  5
105D
  8
DATA
  6
CONTINUOUS
 62
     7
 10
-450.0
 20
-347.99999999999977
 30
0.0
 11
-421.25
 21
-347.99999999999977
 31
0.0
  0
LINE
  5
105E
  8
DATA
  6
CONTINUOUS
 62
     7
 10
-450.0
 20
-345.99999999999977
 30
0.0
 11
-423.24999999999989
 21
-345.99999999999977
 31
0.0
  0
LINE
  5
105F
  8
DATA
  6
CONTINUOUS
 62
     7
 10
-419.5
 20
-329.49999999999989
 30
0.0
 11
-419.5
 21
-343.99999999999977
 31
0.0
  0
LINE
  5
1060
  8
DATA
  6
CONTINUOUS
 62
     7
 10
100.0
 20
-574.99999999999989
 30
0.0
 11
100.0
 21
-442.0
 31
0.0
  0
LINE
  5
1061
  8
DATA
  6
CONTINUOUS
 62
     7
 10
102.0
 20
-574.99999999999989
 30
0.0
 11
102.0
 21
-442.0
 31
0.0
  0
LINE
  5
1062
  8
DATA
  6
CONTINUOUS
 62
     7
 10
104.0
 20
-574.99999999999989
 30
0.0
 11
104.0
 21
-442.0
 31
0.0
  0
LINE
  5
1063
  8
DATA
  6
CONTINUOUS
 62
     7
 10
100.0
 20
-442.0
 30
0.0
 11
411.0
 21
-442.0
 31
0.0
  0
LINE
  5
1064
  8
DATA
  6
CONTINUOUS
 62
     7
 10
100.0
 20
-574.99999999999989
 30
0.0
 11
411.0
 21
-574.99999999999989
 31
0.0
  0
LINE
  5
1065
  8
DATA
  6
CONTINUOUS
 62
     7
 10
411.0
 20
-574.99999999999989
 30
0.0
 11
411.0
 21
-442.0
 31
0.0
  0
ARC
  5
1066
  8
DATA
  6
CONTINUOUS
 62
     7
 10
-442.25
 20
-479.92499999999978
 30
0.0
 40
3.5
 50
90.0
 51
270.0
  0
ARC
  5
1067
  8
DATA
  6
CONTINUOUS
 62
     7
 10
-439.25
 20
-479.92499999999978
 30
0.0
 40
3.5
 50
270.0
 51
90.0
  0
LINE
  5
1068
  8
DATA
  6
CONTINUOUS
 62
     7
 10
-442.25
 20
-476.42500000000001
 30
0.0
 11
-439.25
 21
-476.42500000000001
 31
0.0
  0
LINE
  5
1069
  8
DATA
  6
CONTINUOUS
 62
     7
 10
-439.25
 20
-483.42499999999978
 30
0.0
 11
-442.25
 21
-483.42499999999978
 31
0.0
  0
ARC
  5
106A
  8
DATA
  6
CONTINUOUS
 62
     7
 10
-442.25
 20
-537.07499999999993
 30
0.0
 40
3.5
 50
90.0
 51
270.0
  0
ARC
  5
106B
  8
DATA
  6
CONTINUOUS
 62
     7
 10
-439.25
 20
-537.07499999999993
 30
0.0
 40
3.5
 50
270.0
 51
90.0
  0
LINE
  5
106C
  8
DATA
  6
CONTINUOUS
 62
     7
 10
-442.25
 20
-533.57499999999993
 30
0.0
 11
-439.25
 21
-533.57499999999993
 31
0.0
  0
LINE
  5
106D
  8
DATA
  6
CONTINUOUS
 62
     7
 10
-439.25
 20
-540.57499999999993
 30
0.0
 11
-442.25
 21
-540.57499999999993
 31
0.0
  0
ARC
  5
106E
  8
DATA
  6
CONTINUOUS
 62
     7
 10
22.749999999999972
 20
-479.92499999999978
 30
0.0
 40
3.5
 50
90.0
 51
270.0
  0
ARC
  5
106F
  8
DATA
  6
CONTINUOUS
 62
     7
 10
25.749999999999972
 20
-479.92499999999978
 30
0.0
 40
3.5
 50
270.0
 51
90.0
  0
LINE
  5
1070
  8
DATA
  6
CONTINUOUS
 62
     7
 10
22.749999999999972
 20
-476.42500000000001
 30
0.0
 11
25.749999999999972
 21
-476.42500000000001
 31
0.0
  0
LINE
  5
1071
  8
DATA
  6
CONTINUOUS
 62
     7
 10
25.749999999999972
 20
-483.42499999999978
 30
0.0
 11
22.749999999999972
 21
-483.42499999999978
 31
0.0
  0
ARC
  5
1072
  8
DATA
  6
CONTINUOUS
 62
     7
 10
22.749999999999972
 20
-537.07499999999993
 30
0.0
 40
3.5
 50
90.0
 51
270.0
  0
ARC
  5
1073
  8
DATA
  6
CONTINUOUS
 62
     7
 10
25.749999999999972
 20
-537.07499999999993
 30
0.0
 40
3.5
 50
270.0
 51
90.0
  0
LINE
  5
1074
  8
DATA
  6
CONTINUOUS
 62
     7
 10
22.749999999999972
 20
-533.57499999999993
 30
0.0
 11
25.749999999999972
 21
-533.57499999999993
 31
0.0
  0
LINE
  5
1075
  8
DATA
  6
CONTINUOUS
 62
     7
 10
25.749999999999972
 20
-540.57499999999993
 30
0.0
 11
22.749999999999972
 21
-540.57499999999993
 31
0.0
  0
LINE
  5
1076
  8
DATA
  6
CONTINUOUS
 62
     7
 10
124.5
 20
-456.0
 30
0.0
 11
411.0
 21
-456.0
 31
0.0
  0
LINE
  5
1077
  8
DATA
  6
CONTINUOUS
 62
     7
 10
124.5
 20
-442.0
 30
0.0
 11
124.5
 21
-456.0
 31
0.0
  0
CIRCLE
  5
1078
  8
DATA
  6
CONTINUOUS
 62
     7
 10
158.4999999999998
 20
-450.0
 30
0.0
 40
3.5
  0
LINE
  5
1079
  8
DATA
  6
CONTINUOUS
 62
     7
 10
156.4999999999998
 20
-450.0
 30
0.0
 11
160.4999999999998
 21
-450.0
 31
0.0
  0
LINE
  5
107A
  8
DATA
  6
CONTINUOUS
 62
     7
 10
158.4999999999998
 20
-452.0
 30
0.0
 11
158.4999999999998
 21
-448.0
 31
0.0
  0
CIRCLE
  5
107B
  8
DATA
  6
CONTINUOUS
 62
     7
 10
349.49999999999977
 20
-450.0
 30
0.0
 40
3.5
  0
LINE
  5
107C
  8
DATA
  6
CONTINUOUS
 62
     7
 10
347.49999999999977
 20
-450.0
 30
0.0
 11
351.49999999999977
 21
-450.0
 31
0.0
  0
LINE
  5
107D
  8
DATA
  6
CONTINUOUS
 62
     7
 10
349.49999999999977
 20
-452.0
 30
0.0
 11
349.49999999999977
 21
-448.0
 31
0.0
  0
LINE
  5
107E
  8
DATA
  6
CONTINUOUS
 62
     7
 10
-450.0
 20
-347.60000000000002
 30
0.0
 11
-421.64999999999992
 21
-347.60000000000002
 31
0.0
  0
LINE
  5
107F
  8
DATA
  6
CONTINUOUS
 62
     7
 10
-421.25
 20
-347.99999999999977
 30
0.0
 11
-421.25
 21
-343.99999999999977
 31
0.0
  0
LINE
  5
1080
  8
DATA
  6
CONTINUOUS
 62
     7
 10
5.1499999999999924
 20
-347.60000000000002
 30
0.0
 11
33.499999999999972
 21
-347.60000000000002
 31
0.0
  0
LINE
  5
1081
  8
DATA
  6
CONTINUOUS
 62
     7
 10
4.75
 20
-347.99999999999977
 30
0.0
 11
4.75
 21
-343.99999999999977
 31
0.0
  0
LINE
  5
1082
  8
DATA
  6
CONTINUOUS
 62
     7
 10
102.40000000000001
 20
-574.99999999999989
 30
0.0
 11
102.40000000000001
 21
-442.0
 31
0.0
  0
ARC
  5
1083
  8
DATA
  6
CONTINUOUS
 62
     7
 10
396.5
 20
-479.92499999999978
 30
0.0
 40
3.5
 50
90.0
 51
270.0
  0
ARC
  5
1084
  8
DATA
  6
CONTINUOUS
 62
     7
 10
399.5
 20
-479.92499999999978
 30
0.0
 40
3.5
 50
270.0
 51
90.0
  0
LINE
  5
1085
  8
DATA
  6
CONTINUOUS
 62
     7
 10
396.5
 20
-476.42500000000001
 30
0.0
 11
399.5
 21
-476.42500000000001
 31
0.0
  0
LINE
  5
1086
  8
DATA
  6
CONTINUOUS
 62
     7
 10
399.5
 20
-483.42499999999978
 30
0.0
 11
396.5
 21
-483.42499999999978
 31
0.0
  0
ARC
  5
1087
  8
DATA
  6
CONTINUOUS
 62
     7
 10
396.5
 20
-537.07499999999993
 30
0.0
 40
3.5
 50
90.0
 51
270.0
  0
ARC
  5
1088
  8
DATA
  6
CONTINUOUS
 62
     7
 10
399.5
 20
-537.07499999999993
 30
0.0
 40
3.5
 50
270.0
 51
90.0
  0
LINE
  5
1089
  8
DATA
  6
CONTINUOUS
 62
     7
 10
396.5
 20
-533.57499999999993
 30
0.0
 11
399.5
 21
-533.57499999999993
 31
0.0
  0
LINE
  5
108A
  8
DATA
  6
CONTINUOUS
 62
     7
 10
399.5
 20
-540.57499999999993
 30
0.0
 11
396.5
 21
-540.57499999999993
 31
0.0
  0
LINE
  5
108B
  8
DATA
  6
CONTINUOUS
 62
     7
 10
94.999999999999986
 20
-560.34999999999991
 30
0.0
 11
100.0
 21
-560.34999999999991
 31
0.0
  0
LINE
  5
108C
  8
DATA
  6
CONTINUOUS
 62
     7
 10
94.999999999999986
 20
-545.34999999999991
 30
0.0
 11
100.0
 21
-545.34999999999991
 31
0.0
  0
LINE
  5
108D
  8
DATA
  6
CONTINUOUS
 62
     7
 10
94.999999999999986
 20
-551.19235999999989
 30
0.0
 11
100.0
 21
-551.19235999999989
 31
0.0
  0
LINE
  5
108E
  8
DATA
  6
CONTINUOUS
 62
     7
 10
94.999999999999986
 20
-545.34999999999991
 30
0.0
 11
94.999999999999986
 21
-560.34999999999991
 31
0.0
  0
ARC
  5
108F
  8
DATA
  6
CONTINUOUS
 62
     7
 10
-442.25
 20
169.77500000000001
 30
0.0
 40
3.5
 50
90.0
 51
270.0
  0
ARC
  5
1090
  8
DATA
  6
CONTINUOUS
 62
     7
 10
-439.25
 20
169.77500000000001
 30
0.0
 40
3.5
 50
270.0
 51
90.0
  0
LINE
  5
1091
  8
DATA
  6
CONTINUOUS
 62
     7
 10
-442.25
 20
173.27500000000001
 30
0.0
 11
-439.25
 21
173.27500000000001
 31
0.0
  0
LINE
  5
1092
  8
DATA
  6
CONTINUOUS
 62
     7
 10
-439.25
 20
166.27500000000001
 30
0.0
 11
-442.25
 21
166.27500000000001
 31
0.0
  0
ARC
  5
1093
  8
DATA
  6
CONTINUOUS
 62
     7
 10
-442.25
 20
112.6249999999999
 30
0.0
 40
3.5
 50
90.0
 51
270.0
  0
ARC
  5
1094
  8
DATA
  6
CONTINUOUS
 62
     7
 10
-439.25
 20
112.6249999999999
 30
0.0
 40
3.5
 50
270.0
 51
90.0
  0
LINE
  5
1095
  8
DATA
  6
CONTINUOUS
 62
     7
 10
-442.25
 20
116.125
 30
0.0
 11
-439.25
 21
116.125
 31
0.0
  0
LINE
  5
1096
  8
DATA
  6
CONTINUOUS
 62
     7
 10
-439.25
 20
109.125
 30
0.0
 11
-442.25
 21
109.125
 31
0.0
  0
ARC
  5
1097
  8
DATA
  6
CONTINUOUS
 62
     7
 10
22.749999999999972
 20
169.77500000000001
 30
0.0
 40
3.5
 50
90.0
 51
270.0
  0
ARC
  5
1098
  8
DATA
  6
CONTINUOUS
 62
     7
 10
25.749999999999972
 20
169.77500000000001
 30
0.0
 40
3.5
 50
270.0
 51
90.0
  0
LINE
  5
1099
  8
DATA
  6
CONTINUOUS
 62
     7
 10
22.749999999999972
 20
173.27500000000001
 30
0.0
 11
25.749999999999972
 21
173.27500000000001
 31
0.0
  0
LINE
  5
109A
  8
DATA
  6
CONTINUOUS
 62
     7
 10
25.749999999999972
 20
166.27500000000001
 30
0.0
 11
22.749999999999972
 21
166.27500000000001
 31
0.0
  0
ARC
  5
109B
  8
DATA
  6
CONTINUOUS
 62
     7
 10
22.749999999999972
 20
112.6249999999999
 30
0.0
 40
3.5
 50
90.0
 51
270.0
  0
ARC
  5
109C
  8
DATA
  6
CONTINUOUS
 62
     7
 10
25.749999999999972
 20
112.6249999999999
 30
0.0
 40
3.5
 50
270.0
 51
90.0
  0
LINE
  5
109D
  8
DATA
  6
CONTINUOUS
 62
     7
 10
22.749999999999972
 20
116.125
 30
0.0
 11
25.749999999999972
 21
116.125
 31
0.0
  0
LINE
  5
109E
  8
DATA
  6
CONTINUOUS
 62
     7
 10
25.749999999999972
 20
109.125
 30
0.0
 11
22.749999999999972
 21
109.125
 31
0.0
  0
ENDSEC
  0
EOF
